Accordium Delectus Подборка аккордов
 
Главная > Б > Братья Радченко > Мамин сад

Братья Радченко: Мамин сад



Вступление (примерный вариант перебора):

  E7   Am                              Em                               
E|-0------------0---------------0---------------0---------------0-------|
H|-3--------1-----1---1-----1-----1---1-----0-----0---0-----0-----0---0-|
G|-1------2---2-----2-----2---2-----2-----0---0-----0-----0---0-----0---|
D|-2--------------------------------------------------------------------|
A|-2----0---------------0-----------------------------------------------|
E|-0------------------------------------0---------------0---------------|

  H7                              Em              E7                    
E|---------2---------------2---------------0---------------0------------|
H|-----0-----0---0-----0-----0---0-----0-----0---0-----3-----3---3------|
G|---2---2-----2-----2---2-----2-----0---0-----0-----1---1-----1--------|
D|----------------------------------------------------------------------|
A|-2---------------2----------------------------------------------------|
E|---------------------------------0---------------0--------------------|

  Am                              Em                                     
E|---------0---------------0---------------0---------------0------------|
H|-----1-----1---1-----1-----1---1-----0-----0---0-----0-----0---0------|
G|---2---2-----2-----2---2-----2-----0---0-----0-----0---0-----0--------|
D|----------------------------------------------------------------------|
A|-0---------------0----------------------------------------------------|
E|---------------------------------0---------------0--------------------|

   H7                             Em       H7     Em                     
E|---------2---------------2-------------0-------2-0--------------------|
H|-----0-----0---0-----0-----0---0-----0-------0---0--------------------|
G|---2---2-----2-----2---2-----2-----0-------2-----0--------------------|
D|-------------------------------------------------2--------------------|
A|-2---------------2-----------------------2-------2--------------------|
E|---------------------------------0---------------0--------------------|

                                  Em                             Am
Снится мне наш старый сад над задумчивой рекой,
                                      H7                          Em   E7
Где так много лет назад вижу маму молодой
                           Am                                 Em
Заметает яблонь цвет стёжку-тропочку в саду,
                                   H7                              Em   E7
А в тот сад дороги нет, что ж опять туда иду?
                           Am                                 Em
Заметает яблонь цвет стёжку-тропочку в саду,
                                       H7                             Em H7 Em
А в тот сад дороги нет, что ж опять туда иду?

Я лечу туда во сне, я спешу в тот дивный сад,
Может встретится там мне самый добрый в мире взгляд,
Что как звёздочка далёк и мерцает в вышине,
                                           H7                                Em  E7
Словно шепчет мне: "Сынок, возвращайся по весне"

Проигрыш:

|Am  Am|Em  Em|H7  H7|Em H7 Em|

Переход на 1 тон (на 1 лад) выше (Fm)

C7                    Fm                                 Bm   
Я сюда ещё вернусь - Боже, боль уйми мою! -
                                 C7                                  Fm  F
Низко в пояс поклонюсь и прости, прошу, молю!
                           Bm                                 Fm
Заметает яблонь цвет стёжку-тропочку в саду,
                                C7                              Fm  F
А в тот сад дороги нет, что ж опять туда иду?
                           Bm                                 Fm
Заметает яблонь цвет стёжку-тропочку в саду,
                            C7                              Fm
А в тот сад дороги нет, что ж опять туда иду?

Окончание:

|Bm  Bm|Fm  Fm|C7  C7|Fm  F|

|Bm  Bm|Fm  Fm|C7  C7|Fm C7 Fm|

Бой на гитаре (примерный вариант):

 


 
Последние комментарии

"Из всех вариантов этот лучший👍🏻"
 

"Классная песня!"
 

"Оычень мелодичная задушевная песня."
 

"единственный правильный текст песни."
Статистика

Онлайн всего: 33
Гостей: 32
Пользователей: 1
Justas
Вход на сайт