Accordium Delectus Подборка аккордов
 
"
Главная > Б > Браво > Жар-птица

Браво: Жар-птица



Вступление (примерный вариант перебора):

    Am           C         Fmaj7       Fadd9          
E|-------0-----------0-----------0-----------3-----|
H|-----1---1-------1---1-------1---1-------1---1---|
G|---2-------2---0-------0---2-------2---2-------2-|
D|-------------------------3-----------3-----------|
A|-0-----------3-----------------------------------|
         E|-------------------------------------------------| - 2 раза

Am           C               Fmaj7       
Я принёс тебе в подарок
Fmaj7>Am/E>Dm             Dm7             G/H                              
Не тюльпаны, не жасмин,
Am         C           Fmaj7       
Не пионы и не розы,
Fmaj7>Am/E>Dm             Dm7                G/H                             
Не подснежники с вершин,

Fmaj7 Am/E  Dm Dm7  G/H      
Я       пе-е-ро   жар-птицы
Fmaj7   Am/E Dm Dm7 G/H  
По-о-о-да-а-рю   те-е-бе

Припев:

Dm              
В день ненастный, в час, когда
Am              
Постучится в дом беда,
           Dm                      G    
И не справиться тебе одной,

Две монеты брось в огонь,
И перо три раза тронь,
           Dm            Em7      Am 
И жар-птица прилетит со мной


Если ты не веришь в чудо,
Ты поверь в мою любовь!
Только место понадёжней
Для подарка приготовь

Надо лишь поверить
В магию любви

Припев.

Проигрыш:

    Am           C         Fmaj7       Fadd9 Fmaj7    
E|-------0-----------0-----------0-----3-----0-----|
H|-----1---1-------1---1-------1---1-----1-----1---|
G|---2-------2---0-------0---2-------2-----2-----2-|
D|-------------------------3-----------------------|
A|-0-----------3-----------------------------------|
         E|-------------------------------------------------| - 4 раза

  Fmaj7 Am/E   Dm    Dm7   G/H                       
E|-------------------------------3-----------3-----|
H|-----1-----1-----3-----3-----3---3-------3---3---|
G|---2-----2-----2-----2-----0-------0---0-------0-|
D|-3-----2-----0-----------------------------------|
A|-------------------3-----2-----------2-----------|
E|-------------------------------------------------|

  Fmaj7 Am/E   Dm    Dm7   G/H                       
E|-------------------------------3-----3-----------|
H|-----1-----1-----3-----3-----3---3---3-----------|
G|---2-----2-----2-----2-----0-------0-0-----------|
D|-3-----2-----0-----------------------0-----------|
A|-------------------3-----2-----------2-----------|
E|-------------------------------------------------|

Припев.

Две монеты брось в огонь,
И перо три раза тронь,
И жар-птица прилетит со мной

Окончание:

    Am           C         Fmaj7       Fadd9 Fmaj7              Asus2 
E|-------0-----------0-----------0-----3-----0-----|          |-0-|
H|-----1---1-------1---1-------1---1-----1-----1---|          |-0-|
G|---2-------2---0-------0---2-------2-----2-----2-|          |-2-|
D|-------------------------3-----------------------|          |-2-|
A|-0-----------3-----------------------------------|          |-0-|
E|-------------------------------------------------| - 2 раза |---|
 
Поделись с друзьями:
 
 
Последние комментарии

"Слова не те"
 

"уаропоряяяяяяяяяяя"
 

"хорошо"
 
Стефания Детковская «Слава: Расскажи мне, мама

"Красивая песня"
 

"Песня моей юности! В конце 60-х она звучала из всех открытых окон и из транзисторов в руках у ребят!"
Настройка гитары
1-ая струна E (ми)  

2-ая струна H (си)  

3-я струна G (соль) 

4-ая струна D (ре) 

5-ая струна A (ля) 

6-ая струна E (ми) 
Статистика

Онлайн всего: 96
Гостей: 95
Пользователей: 1
Justas
Вход на сайт