Accordium Delectus Подборка аккордов
 
Главная > Ч > Чайф > Дом вверх дном

ЧайФ: Дом вверх дном


Вступление:

  A

E|-5-3-0------3-2-0-----------5-3-0------3-2-0---5-|

H|------------------2--------------------------2-5-|

G|-------2------------2-------------2--------------|

D|-------------------------------------------------|

A|-------------------------------------------------|

E|-------------------------------------------------|


A                              
Дом - большой, места хватит всем,
Хочешь - оставайся, никаких проблем!
   D                               
В доме все равны - и клоун, и поэт,
       A                                   
Здесь надо заслужить права на сон и на обед

Припев:

 E                      D7             
Ничему не удивляйся, не думай о плохом,
   E                        D7                   
С нами не соскучишься, ведь этот дом вверх дном!


Наш семейный театр - вот шут, а вот король,
Выбирай любую в этом театре роль
Каждый - критик, каждый - лицедей,
В нашем доме достаточно ролей

Припев.

Дети - цветы жизни, это знают все,
Синенькая юбочка, ленточка в косе
Игрушки и уроки, новые друзья,
И тысячи вопросов: что можно, что нельзя

Припев.

Мужчины не сдаются, мужчины не ревут,
Кто думает иначе - в этом доме не живут
Иногда бывает трудно, иногда - смешно,
Иногда нам кажется, что сил не хватит, но...

Припев.

Окончание:

  A

E|-5-3-0------3-2-0--------------------------5-3-0------3-2-0-----|

H|------------------2-----------------------------------------2---|

G|-------2------------2----------------------------2------------2-|

D|----------------------------------------------------------------|

A|----------------------------------------------------------------|

E|----------------------------------------------------------------|

   О-у-у-у...                    Дом вверх дном!                  

  A

E|-5-3-0------3-2-0--------------------------5-3-0------3-2-0---5-|

H|------------------2-----------------------------------------2-5-|

G|-------2------------2----------------------------2--------------|

D|----------------------------------------------------------------|

A|----------------------------------------------------------------|

E|----------------------------------------------------------------|

 Дом вверх дном!                           Дом вверх дном!                                                                  
 
Поделись с друзьями:
 
 
Последние комментарии

"Понравилась песня."
 

"Здорово. По-моему. лучшее исполнение"
 

"Клаааас!"
 

"Низкий поклон АНГЕЛАМ ПРИСЯГИ!!!"
 

"Классная песня , с великим смыслом СПАСИБО""
Статистика

Онлайн всего: 49
Гостей: 49
Пользователей: 0
Вход на сайт