Accordium Delectus Подборка аккордов
 
Главная > Ч > Чайф > Кто-то хитрый

ЧайФ: Кто-то хитрый


Вступление:


 Fmaj7        Am        F#dim7       Esus4    E            

E|------0-----------0-----------5-----------0-------------|

H|------1-----------1-----------4-----------0-------------|

G|----2---2-------2---2-------5---5-------2---1-----------|

D|-3-----------------------4-----------2------------------|

A|-------------0------------------------------------------|

E|--------------------------------------------------------|

 

 Fmaj7        Am        F#dim7      Fdim7 E7  Am           

E|------0-----------0-----------5------4---4--------0-----|

H|------1-----------1-----------4------3---3--------1-----|

G|----2---2-------2---2-------5---5----4---4------2---2---|

D|-3-----------------------4-----------3---2--------------|

A|-------------0-------------------------------0--------0-|

E|--------------------------------------------------------|

Am        Am/G     
У тебя на полке -
  F               E             
Плюшевый мишка и заяц в футболке
Am            Am/G    
Ты давно когда-то
 F           E                 
Ранним утром их нашла под ёлкой

Fmaj7              Am          
А за старым шкафом -
  F#dim7            Esus4     E  
Портфель без ручки и летняя шляпа
Fmaj7             Am             
Кто-то хитрый и большой
F#dim7    Fdim7      E7          
Наблюдает за тобой...


У тебя в кармане
Два мелка и волшебный камень
Ты волшебный камень
На Восьмое марта подаришь маме

А с высокой крыши
Всё на свете слышно
Кто-то хитрый и большой
Наблюдает за тобой...

Проигрыш - - 2 раза :

  Am         Am/G          F           E                   

E|------0-----------0-----------1-----------0-------------|

H|------1-----------1-----------1-----------0-------------|

G|----2---2-------2---2-------2---2-------1---1-----------|

D|--------------------------------------------------------|

A|-0------------------------------------------------------|

         E|-------------3-----------1-----------0------------------|         

  +вступление.

Подобреет стужа -
Босиком пройдёшь по луже
Ночью в ней купалась
Круглая луна, и тебе осталось...

И теперь понятно
На луне откуда пятна
Кто-то хитрый и большой
Наблюдает за тобой...

Окончание:

  Am                 Am/G                  F                   E                 

E|----------0-------------------0-------------------1-------------------0-------|

H|------1-------1-----------1-------1-----------1-------1-----------0-------0---|

G|----2---2---2---2-------2---2---2---2-------2---2---2---2-------1---1---1---1-|

D|------------------------------------------------------------------------------|

A|-0----------------------------------------------------------------------------|

         E|---------------------3-------------------1-------------------0----------------| - 2 раза


   Fmaj7                Am                F#dim7              Esus4             E     

E|----------0-------------------0-------------------5-------------------0-------|

H|------1-------1-----------1-------1-----------4-------4-----------0-------0---|

G|----2---2---2---2-------2---2---2---2-------5---5---5---5-------2---2---2---1-|

D|-3---------------------------------------4-------------------2----------------|

A|---------------------0--------------------------------------------------------|

E|------------------------------------------------------------------------------|

 

  Fmaj7               Am             F#dim7             Fdim7       E7      Am                       

E|----------0-----------------0-----------------5------------------------------------0---------5-|

H|------1-------1---------1-------1---------4-------4---------3--------3---------1-------1-------|

G|----2---2---2---2-----2---2---2---2-----5---5---5---5-----4---4----4---4-----2---2---2---2-----|

D|-3-----------------------------------4-----------------3---------2-----------------------------|

A|-------------------0------------------------------------------------------0--------------------|

E|-----------------------------------------------------------------------------------------------|

     Кто-то хитрый и большой                 наблюдает     за    тобой...                            


 
Последние комментарии

"Круть😃😃😃"
 

"Великолепная поэзия."
 

"Исполнитель и автор Денис чулец"
 

"Отличная песня . Даже поплакал....."
 

"Самые лучшие аккорды. Счастлив, что нашёл ваш сайт"
Статистика

Онлайн всего: 60
Гостей: 59
Пользователей: 1
Justas
Вход на сайт