Accordium Delectus Подборка аккордов
 
Главная > Ч > Чёрный Государь > Чёрный ворон

Чёрный Государь: Чёрный ворон



Вступление:

E|-------------------------------------------------|
H|-------------------------------------------------|
G|-------0-----------0-----------0-----------------|
D|----5-----5-----4-----4-----2-------0----0-----0-|
A|-7-----------5-----------3--------3--------------|
         E|--------------------------------------3-----2----| - 2 раза

E|--------------------------------------------------|
H|--------------------------------------------------|
G|-------0-----------0------------0-----------------|
D|----5-----5-----4-----4------2-------0----0-----0-|
A|-7-----------5------------3--------3--------------|
E|---------------------------------------3-----2----|
    Сказать тебе, о чём не знал?                      

E|--------------------------------------------------|
H|--------------------------------------------------|
G|-------0-----------0------------0-----------------|
D|----5-----5-----4-----4------2-------0----0-----0-|
A|-7-----------5------------3--------3--------------|
E|---------------------------------------3-----2----|
     Я вижу, братец,  подустал                       

E|--------------------------------------------------|
H|--------------------------------------------------|
G|-------0-----------0------------0-----------------|
D|----5-----5-----4-----4------2-------0----0-----0-|
A|-7-----------5------------3--------3--------------|
E|---------------------------------------3-----2----|
      И вот стою  я  у  двери                        

E|--------------------------------------------------|
H|--------------------------------------------------|
G|-------0-----------0------------0-----------------|
D|----5-----5-----4-----4------2-------0----0-----0-|
A|-7-----------5------------3--------3--------------|
E|---------------------------------------3-----2----|
  Постой же, брат,   не уходи!                       

Припев:

                       Em  Em7 C    G D/F#  Em  Em7  C  G D/F#
О-о-о-о-о, не   у-хо-ди!
                        Em  Em7 C    G D/F#  Em  Em7  C  G D/F#
О-о-о-о-о, не   у-хо-ди!


          Em                    Em7               C   G D/F# Em
Как чёрный ворон под луной
                              Em7                        C   G D/F# Em
Лечу к тебе, сквозь снег и зной
                              Em7                   C   G D/F# Em
Туда, где солнце светит всем,
                              Em7                  C   G D/F# Em
Где нету бед и нет проблем

Припев:

О-о-о-о-о-о, нету проблем...
О-о-о-о-о-о, нету проблем...

Проигрыш:

|Em  Em7|C  G D/F#| - 4 раза

Припев:

О-о-о-о-о-о, не уходи!
О-о-о-о-о-о, не уходи!

Окончание:

|Em  Em7|C|

                             G D/F#  Em  Em7  C  G D/F# Em
Не   у-хо-ди...

Бой на гитаре (примерный вариант):

 


 
Последние комментарии

"мне нравится ...очень..."
 

"окуенная правда, и про сотню и про отцов..."
 

"Грусть ,что осень опять пришла."
 

"Отлично, мне очень понрав., классная песня)) Вечная Память!."
 

"здорово!"
Статистика

Онлайн всего: 59
Гостей: 59
Пользователей: 0
Вход на сайт