Accordium Delectus Подборка аккордов
 
Главная > Ч > Чёрный кофе > Листопад

Чёрный кофе: Листопад



Вступление:

 Csus2                                   G#5           B           Cm            

E|------------------------------------------------------------------------------|

H|-------3------------3------------3------------3------------3------------4-----|

G|-----5---5--------5---5--------5---5--------5---5--------3---3--------5---5---|

D|---5-------5----5-------5----5-------5----6-------6----3-------3----5-------5-|

A|-3------------3------------3-------------------------1------------3-----------|

E|----------------------------------------4-------------------------------------|

  Cm           G#            B            F                                   

E|--------------------------------------------------------------------------|

H|-------4------------4------------6------1---------------------------------|

G|-----5---5--------5---5--------7---7----2---------------------------------|

D|---5-------5----6-------6----8-------8--3---------------------------------|

A|-3------------------------------------------------------------------------|

E|--------------4------------6------------1---------------------------------|

----------------------------------------------------------------------------------------------

  Cm           G#5           B          Csus2         Cm                      

E|--------------------------------------------------------------------------|

H|-------4------------3------------3------------3------------4--------------|

G|-----5---5--------5---5--------3---3--------5---5--------5---5------------|

D|---5-------5----6-------6----3-------3----5-------5----5-------5----------|

A|-3-------------------------1------------3------------3--------------------|

E|--------------4-----------------------------------------------------------|

Мне сегодня приснилась опять золотая пора листопада                                  

 

  Fm9          Fm            G                                               

E|-------3-------------------------------3----------------------------------|

H|-----1---1----------1------------3-------3---3----------------------------|

G|---1-------1------1---1--------4---4-------4---4--------------------------|

D|-3--------------3-------3----5-------5-----------5------------------------|

A|--------------------------------------------------------------------------|

E|--------------1------------3----------------------------------------------|

     Будто падаю   в   листья, их готов целовать,                                            

 

  G#            G          Csus2         G#5         Csus2         G#5        

E|--------------------------------------------------------------------------|

H|-------4------------3------------3------------3------------3------------3-|

G|-----5---5--------4---4--------5---5--------5---5--------5---5--------5---|

D|---6-------6----5-------5----5-------5----6-------6----5-------5----6-----|

A|---------------------------3-------------------------3--------------------|

E|-4------------3-------------------------4-------------------------4-------|

            Как сестру       обнимая    и    брата                                                               


Будто сам я такой же листок,
Унесённый с высокого клёна
И лежу на родимой землице, сынок,
И на небо гляжу удивлённо

И вся жизнь предстаёт предо мной
Дымкой розовой, облаком дивным,
И торопится вдаль по дороге лесной,
Где бродил я подростком наивным

Перелётные птицы летят,
Отзвенели своё, отсвистели
Скоро вьюги печали мои утолят,
Скоро землю застелят метели

Проигрыш: Csus2  G#5 - 3 раза G  G  Am  Am  F  F - 2 раза G  G  G  G

Мне сегодня приснилась опять
Золотая пора листопада...


 
Последние комментарии

"А какой бой для этой песни?"
 

"благодарю"
 

"Я гей"
 

"Вспомнил"
 

"Я её очень люблю"
Статистика

Онлайн всего: 30
Гостей: 30
Пользователей: 0
Вход на сайт