Accordium Delectus Подборка аккордов
 

Чёрный кофе: Ночь



Вступление:

  Dm            Dsus4  Dm       Dm6          Em7-5     A7        
E|--------0>1-----3-----1--0------------0>1-----------0-------0-|
H|------3-----3-----3--------3--------3-----3-------3-------2---|
G|----2---------2-----2--------2----2---------2---0-------0-----|
D|-0------------------------------------------------------------|
A|-------------------------------2--------------1-------0-------|
E|--------------------------------------------------------------|

  Dm            Dsus4  Dm       Dm6                              
E|--------0>1-----3-----1--0------------0>1------6--5--3--------|
H|------3-----3-----3--------3--------3-----3-------------------|
G|----2---------2-----2--------2----2---------2--6--6--3--------|
D|-0------------------------------------------------------------|
A|-------------------------------2------------------------------|
E|--------------------------------------------------------------|

Dm                                    Dm6               Bmaj7-5      
Скоро ночь укроет мир       чёрной пеленой...
Dm                                                             Gdim        
Помнишь, как погас экран: мы и зал пустой?
  A7                                         Dm   
День прошедший – споры ни о чём,
A7                                                   Dm       
Сладкий сон, где мы с тобой вдвоём

Я так долго ждал тебя, верил и мечтал,
Столько раз казалось мне – этот миг настал,
Но открывала полночь мне глаза,
Лунный взгляд пустой стрелой пронзал

Припев:

             B          A7                Dm  
Я разбивал в осколки ложь ночей,
                 B          A7              Dm  
Я шёл к тебе - к тебе, мечте своей!
Gm           A7-9                F    A7 
Верил и мечтал, тебя я жда-а-ал,
 Dm                      C                 Gm               A7   
Звёздный свет, холодный свет, нас не согревал...

Проигрыш:

E|-0--0--0--1--0-0----0--0--0--5-|
H|-1--1--0--1--1-1----1--1--0--5-|
G|-0--2--2--2--0-0----0--2--2--6-|
D|-------------------------------|
A|-3--3--3--3--3-3----3--3--3--0-|
E|-------------------------------|

Меркнет день, и всё же ночь пишет свой портрет,
Глаз твоих в кромешной тьме мне не виден свет
Я один печаль свою храню,
Растворяет ночь мечту мою

Припев.

Проигрыш:

|Dm  A7|Dm  A7|Dm  C|F  A7|

|Dm  A7|Dm  A7|Dm  C|F  F|

Припев.

Окончание:

E|-0--0--0--1--0-0----0--0--0--5-|
H|-1--1--0--1--1-1----1--1--0--5-|
G|-0--2--2--2--0-0----0--2--2--6-|
D|-------------------------------|
A|-3--3--3--3--3-3----3--3--3--0-|
E|-------------------------------|

Бой на гитаре (примерный вариант):

 
Последние комментарии

"Сергей Дроздов - легендарный вокалист "Синей птицы" , а это что за круглый однофамилец и тезка???"
 

"Абсолютно!"
 

"Прекрасно!"
 

"50 лет эту песню слушаю и пою, 50 лет восхищаюсь"
 

"🔥Привет всё хорошо мне всё понравилось,нравится я в восторге и радуюсь наслаждаясь такой прекрасной правильной умной даже нравственной песне. Спасибо! Антон из Челябинска пока 🖐"
Вход на сайт