Accordium Delectus Подборка аккордов Главная Отзывы Заявка на песню Аккорды Табы Новости Видео Статьи FAQ О сайте
А   Б   В   Г   Д   Е   Ё   Ж   З   И   Й   К   Л   М   Н   О   П   Р   С   Т   У   Ф   Х   Ц   Ч   Ш   Щ   Э   Ю   Я
 
A   B   C   D   E   F   G   H   I   J   K   L   M   N   O   P   Q   R   S   T   U   V   W   Y   Z                       0...9
"
Разделы сайта
                   
Настройка гитары
1-я струна E  

2-я струна H  

3-я струна G  

4-я струна D  

5-я струна A  

6-я струна E  
Главная > Ц > Цветы > Богатырская сила

Цветы (группа Стаса Намина): Богатырская сила



Вступление (примерный вариант):

E|-------------5-----5-----5---5-6---5-3-----3-----|
H|-1---1-3---1-----6---6-------------------3---3---|
G|---2-----2-----5-------5---5-----5-----3-------3-|
D|-------3-----3-----------0-----0-----------------|
A|-------------------------------------------------|
E|-1-----------------------------------3-----------|

E|-----0-3-1---------1-------0-3>6-----------------|
H|-3---------3-1---1---1---1---------5-------------|
G|---3-----------2-------2---------5---------------|
D|-------------------------------------------------|
A|-------2-----3-----------3-----------------------|
E|-3-----------------------------------------------|


|F(3str)  B(3str)| - 3 раза |F(3str)|

Текст во время вступления:

Нет, не перевелись ещё богатыри на земле нашей!
Не оскудела в сердцах молодецкая удаль!
Сойдёмся, друзья и братья! Восхвалим песней силу нашу,
Силу гордую, богатырскую!

-----------------------------------------------------------------------------

|Fm  Fm|Bm C Fm| - 4 раза

          Fm                  B         
То не грозное небо хмурится,
                D#            C    C7 Fm  C
Не сверкают в степи клинки,
      Fm                    B         
Это батюшки Ильи Муромца
                                    Fm          C F(3str) B(3str) F(3str)
Вышли биться ученики!

Проигрыш:

|Fm  Fm|Bm C Fm| - 4 раза

За победу их ветры молятся,
Ждут их тернии и венцы
Разгулялися добры молодцы,
Распотешились молодцы!

Проигрыш:

|Fm  Fm|Bm C Fm| - 4 раза

Припев:

F                        B          C  F     
Эх, да надобно жить красиво,
    F                         B          C      F   A
Эх, да надо нам жить раздольно!
Dm              Gm       Dm 
Богатырская наша сила,
  B          F     C          F  
Сила духа и сила воли!

Проигрыш:

|Fm  Fm|Bm C Fm| - 4 раза

Богатырское наше правило -
Надо другу в беде помочь,
Отстоять в борьбе дело правое,
Силой силушку превозмочь!

Проигрыш:

|Fm  Fm|Bm C Fm| - 4 раза

Припев - 2 раза.

Окончание:

|Fm  Fm|Bm C Fm|...

Бой на гитаре (примерный вариант):

 
Ещё песни:
 

 
 
Новые добавления
Статистика

Онлайн всего: 116
Гостей: 115
Пользователей: 1
sterjanov2

Яндекс.Метрика

Вход на сайт