Accordium Delectus Подборка аккордов
 
Главная > Ш > Шульц Даша > Плакать

Даша Шульц: Плакать



Вступление:

E|-7-----7-----7------7-----7-----7-----3--2----5--2-|
H|---0-----0-----0------0-----0-----0----------------|
G|-----5-----5------------5-----5--------------------|
D|------------------0-------------------5--4----7--4-|
A|---------------------------------------------------|
E|---------------------------------------------------|

Cmaj13                   D7+13 
Хочется плакать - плач,
                G               Cmaj7
Никто не будет тебя жалеть
Cmaj13                    D7+13                              
Все деревья кинутся вскачь,
G                     Cmaj7                   
Все деревья кинутся петь

Проигрыш:

E|-7-----7-----7---7-----7-----7---3-----2-----2---5-----2-----2---|
H|---0-----0-----0---0-----0-----0---0-----0-----0---0-----0-----0-|
G|-----5-----5---------5-----5---------0-----0---------0-----0-----|
D|-----------------0-----------0---5-----4---------7-----4---------|
A|-0-----------0---------------------------------------------------|
E|-----------------------------------------------------------------|

Cmaj7                      G                        
Береги себя от врага,
Cmaj7                 G           
Как от огня
Cmaj7                         G            Cmaj7         
Береги себя, как бы сладко
G    
Не звали леса

Hm                     Cmaj7             Gmaj7    
Нас затянет,           мы погибнем
В этой чёрной смоле
Hm                    Cmaj7                
Наши тела превратятся в камень,
Gmaj7                                                   
Прекрати покоряться мгле

Проигрыш:

E|-7-----7-----7---7-----7-----7---3-----2-----2---5-----2-----2---|
H|---0-----0-----0---0-----0-----0---0-----0-----0---0-----0-----0-|
G|-----5-----5---------5-----5---------0-----0---------0-----0-----|
D|-----------------0-----------0---5-----4---------7-----4---------|
A|-0-----------0---------------------------------------------------|
E|-----------------------------------------------------------------|

Cmaj13                                    
Всё сомнение,
D7+13                G 
Всё наше прошлое
           Cmaj7
В творожное облако
 Cmaj13        D7+13               G  Cmaj7
Облачён тревожно

Проигрыш:

E|-7-----7-----7---7-----7-----7---3-----2-----2---5-----2-----2---|
H|---0-----0-----0---0-----0-----0---0-----0-----0---0-----0-----0-|
G|-----5-----5---------5-----5---------0-----0---------0-----0-----|
D|-----------------0-----------0---5-----4---------7-----4---------|
A|-0-----------0---------------------------------------------------|
E|-----------------------------------------------------------------|

Cmaj7               G              
Сложно жить,
Cmaj7                  G               
Легко умирать
Cmaj7               G               
Сложно жить,
Cmaj7                G             
Легко умирать

Hm              Cmaj7           
Беги от безумцев,
Gmaj7                                               
Не беги от проблем
Hm                 Cmaj7                
То, что мы называли солнцем,
Gmaj7                                               
Есть тепло наших тел

Проигрыш:

|Hm  Cmaj7|Gmaj7  Gmaj7|

Cmaj13                     D7+13                        
Прекрати покоряться мгле,
Cmaj13                     D7+13                
Прекрати покоряться,
Cmaj13                     D7+13                          
Прекрати покоряться мгле...

Окончание:

E|-7-----7-----7---7-----7-----7---|          E|-3-----2-----2---5-----2-----2-------7-|
H|---0-----0-----0---0-----0-----0-|          H|---0-----0-----0---0-----0-----0----0--|
G|-----5-----5---------5-----5-----|          G|-----0-----0---------0-----0-------5---|
D|-----------------0-----------0---|          D|-5-----4---------7-----4---------------|
A|-0-----------0-------------------|          A|----------------------------------0----|
E|---------------------------------| - 3 раза E|---------------------------------------|
 


 
Последние комментарии

"Великая песня, только почти забытая."
 

"Красивая песня!"
 

"Мы её в школе играли забыл уже слова и вновь нашёл Как же давно было играли на самопалах"
 

"Прекрасная песня!"
 

"ЗДОРОВО"
Статистика

Онлайн всего: 31
Гостей: 31
Пользователей: 0
Вход на сайт