Accordium Delectus Подборка аккордов
 
Главная > Д > ДДТ > Что такое осень

ДДТ: Что такое осень


Вступление:

  Am              Am  

E|-8---------------8--|

H|-10--------------10-|

G|-9---------------9--|

D|--------------------|

A|--------------------|

E|--------------------|


 Am         E              Am    
Что такое осень? Это небо,
   A7                        Dm   
Плачущее небо под ногами
  Dm               E         Am              F       
В лужах разлетаются птицы с облаками...
   Dm                E             Am        A7
Осень, я давно с тобою не был!

  Dm               E         Am              F       
В лужах разлетаются птицы с облаками...
  Dm                E             Am        E
Осень, я давно с тобою не был!

Припев:

Am            F      Dm          E   
Осень, в небе жгут корабли,
Am           F       Dm             E  
Осень, мне бы прочь от земли
Dm            E    Am         F    
Там, где в море тонет печаль,
Dm                    E      
Осень, тёмная даль


Что такое осень? Это камни,
Верность над чернеющей Невою
Осень, вновь напомнила душе о самом главном,
Осень, я опять лишен покоя

Осень, вновь напомнила душе о самом главном,
Осень, я опять лишен покоя

Припев.

Проигрыш:

  Am       F      Dm      E       Am      F       Dm      E    

E|-----------------------------------------------------------|

H|-----------------------------------------------------------|

G|-----------------------------------------------------------|

D|-----------------------------------------------------------|

A|-2--3--0-2--3--0----0--3-2-------2--3--0-2--3--0----0--3-2-|

E|-----------------1----------4--0-----------------1---------|

  Dm    E     Am       F    Dm               E               

E|-5----7-------------------10----10--15--13-12-------------|

H|-6----9-------------------10----10---------12-------------|

G|-7----9-------------------10----10---------13-------------|

D|-7----9---------------------------------------------------|

A|-5----7----2-3--5--2-3------------------------------------|

E|----------------------------------------------------------|


Что такое осень? Это ветер
Вновь играет рваными цепями
Осень, доползём ли, долетим ли до ответа?
Что же будет с Родиной и с нами?

Осень, доползём ли, долетим ли до рассвета?
Осень, что же будет завтра с нами?

Припев.

Проигрыш:

(Am  F  Dm  E - 2 раза Dm  E  Am  F  Dm  Dm  E  E) - 2 раза

Припев:

Осень, в небе жгут корабли,
Осень, мне бы прочь от земли
Там, где в море тонет печаль,
Осень, тёмная даль

Тает стаей гоpод во мгле
Осень, что я знал о тебе
Сколько будет рваться листва
Осень вечно права!

Окончание:

  Am             F              Dm    E  

E|-------------------------------5----7-|

H|-------------------------------6----9-|

G|-------------------------------7----9-|

D|-2-2-2---------3-3-3-----------7----9-|

A|-------3--3-0--------5--5-0----5----7-|

         E|--------------------------------------| - 3 раза

  Am             F              Dm   E     

E|-------------------------------1------0-|

H|-------------------------------3------0-|

G|-------------------------------2------1-|

D|-2-2-2---------3-3-3-----------0------2-|

A|-------3--3-0--------5--5-0-----------2-|

E|------------------------------------0---|

Бой на гитаре (примерный вариант):

 


 
Последние комментарии

"Благодарю за песню!Мелодичная и красивая,спели великолепно! Цепляет струнки души!"
 

"А я слышал вариант: От вселенской ПОГОНИ не уйти ..."
 

"Классно, а кто текст написал?)"
 

"Нормально. Мы ее в армии лабали ДМБ-82"
 

"Класс!"
Статистика

Онлайн всего: 77
Гостей: 77
Пользователей: 0
Вход на сайт