Accordium Delectus Подборка аккордов
 
Главная > Д > ДДТ > Мёртвый город. Рождество

ДДТ: Мёртвый город. Рождество



Вступление:

       Cmaj7  D       G    D       G   H7      Em

E|--------------------------------------------------|

H|--------------3-1-0--------3-1-0------------------|

G|-----0~2-4----------2-4----------2-4--------2-----|

D|-0~2--------------------------------------1-----5-|

A|----------------------------------------2---------|

E|--------------------------------------------------|

       Cmaj7  D       G    D       G   H7      Em

E|--------------------------------------------------|

H|--------------3-1-0--------3-1-0------------------|

G|-----0~2-4----------2-4----------2-4--------2-----|

D|-0~2--------------------------------------1-----2-|

A|----------------------------------------2---------|

E|--------------------------------------------------|


 H7      Em                   
Не пройти мне ответом
C                D             G       
Там, где пулей вопрос,
       H7            Em                      
Где каждый взгляд миллиметром,
C             D             G     
Время пять папирос

Am     
Мёртвый гоpод хоронит
D                 G    
Свои голоса,
 H7  Em                   
Потерялись и бродят
H7                          Em    
Между стен небеса


Рождество наступило,
В подвале темно
Сколько душ погубило
Напротив окно

Я забыл, что в приpоде
Ещё что-то есть
Шестого приняли pоды
Без шести минут шесть

Припев:

                         H7                Em   Emadd9-Em
А наутро выпал снег
              H7                           Em  Emadd9-Em
После долгого огня
         D                              G  Gsus4-G
Этот снег убил меня,
            H7                             Em  Emadd9-Em
Погасил короткий век

      D                             G  Gsus4-G
Я набрал его в ладонь,
       D                                          G  Gsus4-G
Сплюнул в белый грязь и пыль
           H7                                 Em    Emadd9-Em
То ли небыль, то ли быль,
H7                                   Em         
То ли вечность, то ли вонь

Проигрыш=Вступление

Этот город разбился,
Но не стал крестом
Павший город напился
Жизни пеpед постом

Здесь контужены звёзды,
Новый жгут Вифлием
Hа пелёнке берёзы,
Руки ноги не всем


С Рождеством Вас, железо,
Повязка венцом
Медсестра - мать Тереза,
С симпатичным лицом

Прошлой ночью, как шорох,
Вспоминались дни,
Как вы задернули шторы,
Как мы были одни

Припев.

Проигрыш:

       Cmaj7  D       G    D       G   H7      Em

E|--------------------------------------------------|

H|--------------3-1-0--------3-1-0------------------|

G|-----0~2-4----------2-4----------2-4--------2-----|

D|-0~2--------------------------------------1-----5-|

A|----------------------------------------2---------|

E|--------------------------------------------------|

       Cmaj7  D       G    D       G   H7      Em

E|--------------------------------------------------|

H|--------------3-1-0--------3-1-0------------------|

G|-----0~2-4----------2-4----------2-4--------2-----|

D|-0~2--------------------------------------1-------|

A|----------------------------------------2---------|

E|--------------------------------------------------|


Не пройти мне ответом
Там, где пулей вопрос,
Где каждый взгляд миллиметром,
Время пять папирос

Мёртвый город с пустыми
Глазами со мной
Я стрелял холостыми,
Я вчера был живой

Окончание:

       Cmaj7  D       G    D       G   H7      Em

E|--------------------------------------------------|

H|--------------3-1-0--------3-1-0------------------|

G|-----0~2-4----------2-4----------2-4--------2-----|

D|-0~2--------------------------------------1-----5-|

A|----------------------------------------2---------|

E|--------------------------------------------------|

       Cmaj7  D       G    D       G   H7      Em

E|--------------------------------------------------|

H|--------------3-1-0--------3-1-0------------------|

G|-----0~2-4----------2-4----------2-4--------2-----|

D|-0~2--------------------------------------1-----2-|

A|----------------------------------------2---------|

E|--------------------------------------------------|

       Cmaj7  D         G    D         G   H7       Em

E|-----3~5-7----10-8-7----7----10-8-7----7---------------|

H|-3~5-----------------10-------------10----------10---8-|

G|----------------------------------------------8--------|

D|--------------------------------------------9----------|

A|-------------------------------------------------------|

E|-------------------------------------------------------|

Cmaj7  D         G    D         G   H7  

E|-----3~5-7----10-8-7----7----10-8-7----7---------------|

H|-3~5-----------------10-------------10----------10-----|

G|----------------------------------------------8--------|

D|--------------------------------------------9----------|

A|-------------------------------------------------------|

E|-------------------------------------------------------|

Бой на гитаре (примерный вариант):

 


 
Последние комментарии

"Спасибо!"
 

"Замечание по песне. Песня поётся в мажорной тональности. Обратите внимание на аккорды - песня начинается и заканчивается мажорным тоническим аккордом. Просьба исправить заголовки тональностей."
 

"Играю и слезы текут!!!Как жаль,что нет уже доброй и ласковой Матери! Спасибо огромное за такие прекрасные песни!"
 

"Спасибо класс!"
 

"спасибо"
Статистика

Онлайн всего: 75
Гостей: 75
Пользователей: 0
Вход на сайт