Accordium Delectus Подборка аккордов
 
Главная > D > Deep Purple > Sail Away

Deep Purple: Sail Away



Вступление (примерный вариант):

  Em                         A5>G#5>G5 Em                          H5>B5>A5
E|------------------------------------------------------------------------|
H|------------------------------------------------------------------------|
G|------------------------------------------------------------------------|
D|-----5-------------------5----------------5-------------------5---9-8-7-|
A|---7---7---7-----5>7---7---7------------7---7---7-----5>7---7---7-------|
         E|-0-------0---5>7-----0-------5-4-3----0-------0---5>7-----0-------------| - 2 раза

                                  Em                                    A5>G#5>G5
If you're drifting on an empty ocean
                              Em                          H5>B5>A5
With no wind to fill your sail
                         Em                           A5>G#5>G5
The future, your horizon
                             Em                                    H5>B5>A5
It's like searching for the Holy Grail

You feel there's no tomorrow
As you look into the water below
It's only your reflection
And you still ain't got no place to go

Припев:

 H      A     G   
Time will show
 Em/H D/A         C/G
When,   I don't know
Am              Em     
Sail away tomorrow
Am             Em 
Sailing far away
   Am                 Em      
To find it steal or borrow
                G           A            H           H H7 H-6 H(2)
I'll be there someday, ye-e-ah

Проигрыш:

  Em                         A5>G#5>G5 Em                          H5>B5>A5
E|------------------------------------------------------------------------|
H|------------------------------------------------------------------------|
G|------------------------------------------------------------------------|
D|-----5-------------------5----------------5-------------------5---9-8-7-|
A|---7---7---7-----5>7---7---7------------7---7---7-----5>7---7---7-------|
E|-0-------0---5>7-----0-------5-4-3----0-------0---5>7-----0-------------|

Oh woman, I keep returning
To sing the same old song
The story's been told, now I'm getting old
Tell me, where do I belong?

Feel like I'm going to surrender
Hard times I've had enough
If I could find a place, to hide my face
I believe, I could get back up

Припев.

Проигрыш:

  Em                         A5>G#5>G5 Em                          H5>B5>A5
E|------------------------------------------------------------------------|
H|------------------------------------------------------------------------|
G|------------------------------------------------------------------------|
D|-----5-------------------5----------------5-------------------5---9-8-7-|
A|---7---7---7-----5>7---7---7------------7---7---7-----5>7---7---7-------|
         E|-0-------0---5>7-----0-------5-4-3----0-------0---5>7-----0-------------| - 2 раза

|Hm  A|G  G|H  A|G  G|

 Am              Em     
/Sail away tomorrow
Am             Em 
Sailing far away
   Am                 Em      
To find it steal or borrow
  G          A             H           H H7 H-6 H(2)
I'll be there someday, ye-e-ah/ - 2 раза

Окончание:

  Em                         A5>G#5>G5 Em                          H5>B5>A5
E|------------------------------------------------------------------------|
H|------------------------------------------------------------------------|
G|------------------------------------------------------------------------|
D|-----5-------------------5----------------5-------------------5---9-8-7-|
A|---7---7---7-----5>7---7---7------------7---7---7-----5>7---7---7-------|
   E|-0-------0---5>7-----0-------5-4-3----0-------0---5>7-----0-------------|...

Бой на гитаре (примерный вариант):

 


 
Последние комментарии

"Показать окорды"
 

"Удивительная, нежная песня как раз для Кати..."
 

"Володья Путен правит на Руси. Всё хорошо при нём кого ты не спроси - Олимпиады проводил, В сакральные места ходил и террористов он в сортире замочил. Но вот когда его немножечко того Тогда узнаем мы всю правду про него - Что из бюджета воровал И с Украиной воевал, И экономике при нём пришёл обвал..."
 

"Классно!!! Несколько раз подряд слушала, нравится песня и исполнение. Спасибо."
 

"Жаль,раньше не слышала эту песню,теперь буду петь про 60 лет.."
Статистика

Онлайн всего: 101
Гостей: 101
Пользователей: 0
Вход на сайт