Accordium Delectus Подборка аккордов
 
Главная > М > Майданов Денис > Растают следы

Денис Майданов: Растают следы


Вступление(примерный вариант):

E|-8-----7--------8-----7--------------5--------------5-----------------|

H|---5-----5--------5-----5----------5---5----------4---4---------------|

G|-----5-----5--------5-----5------5-------5------4-------4-------------|

D|----------------5--------------4--------------4-----------------------|

A|-0--------------------------------------------------------------------|

E|----------------------------------------------------------------------|

 

E|-3-----2--------5-----3--------2-----2--------------2---------------0-|

H|---0-----0--------0-----0----------1---1----------0-----------0---0---|

G|-----0-----0--------0-----0------0-------0------2-----------0---0-----|

D|-2--------------0-----------------------------------------------------|

A|-------------------------------3--------------2-----------------------|

E|---------------------------------------------------------0------------|

 

  Am     G    Am     G   D/F#                                            

E|----------------------------------------------------------------------|

H|-------------------------------3-----------3--------------------------|

G|-----2-----0-----2-----0-----2---2-------2---2------------------------|

D|---2-----0-----2-----0-----0-------0---0-------0----------------------|

A|-0-----------0--------------------------------------------------------|

E|-------3-----------3-----2-----------2--------------------------------|

Соло

              E|-8-8-8-7-8-7-8-8-8-7-8-7-5-----------3-----5--------------------------| - 1-ая струна

 

 

   G   D/F#    G    D/F#  Em                                              

E|-----------------------------------0-2-----3--------------------------|

H|---------------------------------0-----0-----0------------------------|

G|-----0-----2-----0-----2-------0---------0-----0----------------------|

D|---0-----0-----0-----0-------2----------------------------------------|

A|---------------------------2------------------------------------------|

E|-3-----2-----3-----2-----0--------------------------------------------|

Соло

              E|-7-7-7-5-7-5-7-7-7-5-7-5-3-----------5-----7--------------------------| - 1-ая струна


  Am     G    Am     G   D/F#                  Em                        

E|-------------------------------2-----2----------0-------2-3-----------|

H|-----------------------------3---3---3------------0---0-0-0-----------|

G|-----2-----0-----2-----0---2-------2----------------0-----------------|

D|---2-----0-----2-----0------------------------------------------------|

A|-0-----------0--------------------------------------------------------|

E|-------3-----------3-----2--------------------0-----------------------|

Соло

              E|-8-8-8-7-8-7-8-8-8-7-8-7-5----------------3-2-0-----------------------| - 1-ая струна


(Ты знаешь, жизнь как берег,
Красивый берег реки со своими закатами и рассветами
И всегда можно уплыть, а можно остаться...
Между нами разлуки тень,
                           Ты спишь на песке, а я рисую завтрашний день - текст во время вступления)


             Am Am/F#             Em  C
Растают следы      на мокром песке,
                       G                   E              Am  Dsus4 D 
И ветер расправит, отшедших по краю, круги на реке
               Am Am/F#         Em  C
Уходишь в рассвет,    а я на закат,
              G                       E                  Am  D 
И вряд ли найдёт всё, что было здесь тот, кто вернётся назад...
 Am                D         Em  
Птицы над синей водой нам кричат:


     Am       G   Am           G     D/F# 
Ведь это же вы любили здесь столько лет,
    G       D/F#  G         D/F#      Em 
И прятал глаза, боясь вам мешать, рассвет
      Am       G    Am         G      D/F# 
Ведь это же вы, целуясь, клялись тогда,
       G    D    Em    
Что любовь навсегда...

Припев:

   G                   D                  Em   
А мы рвём на части спасавший когда-то нас зонт,
       G                D                Em   D 
И спорим, кому же зима, а кому больше лета
    G                  D               Em    
На нас смотрит небо и дарит нам тысячи солнц,
   G                 D                Am   
А мы друг у друга воруем скользящие с веток
 D              Em     
Лучики тёплого света...



Растают следы, устанут слова,
Останется ноль, сердце рвущая боль, да чужая молва
А души горят, молчат и горят,
И нам выбирать, всё понять и прощать или пить этот яд...
Птицы над синей водой нам кричат:

Ведь это же вы огнями своих костров
Хранили любовь от боли и катастроф
Ведь это же вы, обнявшись, кричали: "Да!",
Что любовь навсегда!

Припев.

Проигрыш: G  D  Em  Em   G  D  Am  Am   G  D  Em  Em   G  D  Em  Em

  Am     G         Am         G   D/F# 
И не убежать, не спрятаться, не забыть,
   G      D/F#     G     D/F#    Em   
   И незачем быть, и некуда дальше плыть...
   Am      G     Am        G    D/F#
Я эту беду всю ночь рисовал тебе
                      Em  C#m7-5  Cmaj7  Em
На песке...
                       C#m7-5  Cmaj7  Em  
C#m7-5
На песке...
                       Cmaj7  Em  C#m7-5  Cmaj7 
На песке...
                   Am5-Am5-Am-5-Am5-Em
На песке...

 


 
Последние комментарии

"Замечательно!"
 

"Класс"
 

"Моя любимая песня. Слова и музыка трогают душу и придают бодрое настроение!"
 

"спасибо"
 

"Песня огонь!"
Статистика

Онлайн всего: 30
Гостей: 30
Пользователей: 0
Вход на сайт