Accordium Delectus Подборка аккордов
 
Главная > Д > Дюна > За друзей

Дюна: За друзей




Вступление (примерный вариант перебора):

   C              Em              Am                               

E|----------0---------------0---------------0---------------0-----|

H|-------1----1----------0----0----------1----1----------1----1---|

G|-----0--------0------0--------0------2--------2------2--------2-|

D|---2---------------2---------------2---------------2------------|

A|-3-------------------------------0---------------0--------------|

E|-----------------0----------------------------------------------|

   F             G(3)             C(2)             G               

E|----------1---------------3---------------3---------------3-----|

H|-------1----1----------3----3----------1----1----------0----0---|

G|-----2--------2------4--------4------0--------0------0--------0-|

D|---3---------------5---------------2---------------0------------|

A|---------------------------------3------------------------------|

E|-1---------------3-------------------------------3--------------|


             C            Em                   Am  Am7/G
Все дела забыв, друзья придут,
         F               G(3)            C(2)  G
Стол накроют и свечу зажгут
            C                  Em                 Am  Am7/G
За Серёжку с Сашкой в этот раз
    D/F#               G  E
Пьём до дна сейчас

Припев:

         Am       C                   G  
За друзей, которых с нами нет,
           E                    Am           D              G  E
За дружбу прежних лет пьём горькое вино
         Am        C                     G 
За друзей, и скажем лишь одно:
         E                Am  F G(3)     C
Вы с нами всё равно,    всё равно


И не захмелеешь, пей не пей,
Нет печали, а друзьям светлей
Мишка с Лёшкой, вы поймёте нас,
Пьём до дна за вас!

Припев.

Проигрыш: C  C  C/H  C/H  C/B  C/B  F  F/E  Dm7  Dm7  G  G  C  C

Как свеча, сгорает ночь до тла,
Снова разведут друзей дела
Пусть же от потерь и от обид
Вас звезда хранит!

Припев.

Окончание:

E+5 E Am  C  G  E  Am  D  G

E  Am  C  G  E  Am  F G(3) C

Бой на гитаре (примерный вариант):

 


 
Последние комментарии

"Типичная песня тех лет. Как раз в стиле Синей Птицы!"
 

"Замечательный дуэт вокалистов! Левкин-Дроздов!"
 

"В тексте во время проигрыша: Я в руках твоих был кораблем без ВЕТРИЛ!"
 

"Отличная лирическая песня, красивая, но почему то незаслуженно забытая."
 

"Анатолий, спасибо Вам большое 🤗. Песня у меня на сотике. Спасибо"
Вход на сайт