Accordium Delectus Подборка аккордов
 

Дмитрий Певцов и группа КарТуш: Купола

(из репертуара Владимира Высоцкого)
 


Вступление:


             Em      Em             C   Em                     Em                 Em                  C    Em                

E|----------------------------------------------------------|

H|------------0-1---0---0-1-0---0------------------0-1------|

G|----------0-----------------2------------------0----------|

D|-2----2-4-----------------------------2----2-4----------2-|

A|----------------------------------------------------------|

E|----------------------------------------------------------|


           Em                                     Am
Как засмотрится мне нынче, как задышится,
               H7                                  Em       E
Воздух крут перед грозой, крут да вязок
           E                                  Am
Что споётся мне сегодня, что услышится,
       F#m7-5                             H7
Птицы вещие поют, да все из сказок

Птица Сирин мне радостно скалится,
Веселит, зазывает из гнёзд,
А напротив тоскует, печалится,
Травит душу чудной Алконост

Припев:

  Em
Словно семь богатых лун
  E                     Am
На пути моём встаёт -
Am               Em
То мне птица Гамаюн
     C              H7
Надежду подаёт!

              E                                 Am  
В синем небе, колокольнями проколотом,
              C                        H7
Медный колокол, медный колокол,
               E                                Am 
Толь возрадовался, а то ли осерчал...
       Am                                   Em
Купола в России кроют чистым золотом,
           C           H7           Em
Чтобы чаще Господь замечал

Проигрыш:

             Em      Em             C   Em                     Em                 Em                  C    Em                

E|----------------------------------------------------------|

H|------------0-1---0---0-1-0---0------------------0-1----5-|

G|----------0-----------------2------------------0----------|

D|-2----2-4-----------------------------2----2-4------------|

A|----------------------------------------------------------|

E|----------------------------------------------------------|



Я стою, как перед вечною загадкою,
Пред великою, да сказочной страною
Перед солоно, да горько-кисло-сладкою,
Голубою, родниковою, ржаною...

            Em         E                Am
Грязью чавкая жирной, да ржавою,
            C                        H7
Вязнут лошади по стремена
          Em          E               Am
Но влекут меня сонной державою,
         Am/F#                     H7
Что раскисла, опухла от сна

Припев:

Словно семь заветных струн
Зазвенели в свой черёд -
То мне птица Гамаюн
Надежду подаёт!

Душу сбитую утратами, да тратами,
Душу стёртую перекатами...
Если до крови лоскут истончал,
Залатаю золотыми я заплатами,
Чтобы чаще Господь замечал...

           C           H7           Em
Чтобы чаще Господь замечал...

Окончание:

             Em      Em             C   Em                     Em                 Em                  C    Em                

E|----------------------------------------------------------|

H|------------0-1---0---0-1-0---0------------------0-1------|

G|----------0-----------------2------------------0----------|

D|-2----2-4-----------------------------2----2-4----------2-|

A|----------------------------------------------------------|

E|----------------------------------------------------------|

   Em    Em           C     Em   

E|---------------------|

H|------------0-1------|

G|----------0----------|

D|-2----2-4----------2-|

A|---------------------|

E|---------------------|

 


 
Последние комментарии

"Чудесная песня, Прослушала много раз. Спасибо Авторам и певцам."
 

"ВИА Поющие гитары Печаль -беда = Сарафанная молва ! Кто же первый?"
 

"отлично ,благодарю"
 

"А бой какой?"
 

"Прррррекрасно!!!"
Статистика

Онлайн всего: 112
Гостей: 112
Пользователей: 0
Вход на сайт