Accordium Delectus Подборка аккордов
 
Главная > Д > Доберман > Русская вендетта

Доберман: Русская вендетта


Вступление:


 Csus2  Gsus2        D     Em          

E|-3------3-----3----2>3>2--0-----0---|

H|---3------3-----3----3------0-----0-|

G|-----0------0----------2------0-----|

D|-------------------0----------------|

A|-3----------------------------------|

         E|--------3-----3-----------0-----0---| - 4 раза


Csus2                        
Ветер прах развеет
Em                      
На поле поражений,
Csus2                           Em      
С лучами солнца - смертный час

Csus2                             
А в вражьих избах дети,
Em            D          
   Не веря, жгут иконы...
Csus2                      Em      
Их поглатит проклятый дым

Проигрыш=Вступление

Ветер прах развеет
На поле поражений,
Закатом ночь укроет нас

Во сне мы видим братьев,
В бою кровавом павших,
Мы видим их тревожный взгляд

Припев:

D      C          
Русская вендета,
Em                        
Во имя павших братьев
C      D            Em      
Отстою свой дом и честь!

Русская вендета,
Во имя павших братьев...
C      D                Csus2   
Это месть за братский крест!

Проигрыш=Вступление

Csus2                       
Ветер прах развеет
Em                      
На поле поражений,
Csus2                          Em       
В смертный час я вспомню мать

Csus2            D       
Когда согревала
Em                      
И в бои отправляла,
Csus2                    Em       
Слёзы не смогла сдержать

Csus2                        
Ветер прах развеет
Em          D           
На поле поражений,
Csus2                    Em    
Конь вернулся без меня

Csus2          D         
Я один остался,
Em       D       Csus2     
Но не опозорил честь!
D                       Em     
   Вспомнит сын отца и скажет...

Припев.

Окончание:

 Csus2  Gsus2        D     Em          

E|-3------3-----3----2>3>2--0-----0---|

H|---3------3-----3----3------0-----0-|

G|-----0------0----------2------0-----|

D|-------------------0----------------|

A|-3----------------------------------|

        E|--------3-----3-----------0-----0---| - 7 раз


   Csus2  Gsus2        D     Cadd9  

E|-3------3-----3----2>3>2---0-|

H|---3------3-----3----3-----3-|

G|-----0------0----------2---0-|

D|-------------------0-------2-|

A|-3-------------------------3-|

E|--------3-----3--------------|

 


 
Последние комментарии

"Душевно..!"
 

"Жаль нет минусовки ."
 

"Хорошая песня ! Правдивая"
 

"Сейчас таких песен нет."
 

"Замечательная песня"
Статистика

Онлайн всего: 50
Гостей: 50
Пользователей: 0
Вход на сайт