Accordium Delectus Подборка аккордов
 
Главная > Д > Дорога на Миссисипи > Блюз одинокого мужчины

Дорога на Миссисипи: Блюз одинокого мужчины



Вступление:

                                        Cm
E|----11-------10------8-------7------------8--|
H|---------------------------8--------------8--|
G|-12----12-10----10-8---8-7----------------8--|
D|----------------------------------------1-10-|
A|------------------------------------1-3---10-|
E|----------------------------------3-------8--|

|Cm  Cm/D#| - 4 раза

Cm                Cm/D#           
Твои чёрные глаза,
Cm                Cm/D#           
Твои чёрные глаза
Cm             Cm/D#         
Смотрят на меня
Cm              Cm/D#       
С таким укором

Cm                Cm/D#                  
Не хочу банальных слов
Cm                    Cm/D#                
И не нужных разговоров,
Fm                                          
Не пытайся разгадать
Cm       Cm/D#                  
И искать причины

Fm                               G#        
Нет причины - это боль,
Fm                          G# G                      Cm          
Одиночество и боль одинокого мужчины

Проигрыш:

|Cm  Cm/D#| - 2 раза

Нет укромного угла
В темноте моей души
В лабиринты не вступай,
Потеряться не спеши

Что должно было - случилось,
И не надо хмурить бровь
Может быть, и разгорится
В сердце пламенном любовь

Нет причины - это боль,
Нет причины - это боль одинокого мужчины

Проигрыш:

|Cm  G# B|Fm  G# G| - 4 раза

|Cm  Cm/D#| - 4 раза

Твои чёрные глаза,
Твои чёрные глаза
Смотрят на меня
С таким укором

Не хочу банальных слов
И не нужных разговоров,
Не пытайся разгадать
И искать причины

Нет причины - это боль,
Одиночество и боль одинокого мужчины

Окончание:

|Cm  Cm/D#| - 4 раза

                                   Cm
E|----11-------10------8-------7------8--|
H|---------------------------8--------8--|
G|-12----12-10----10-8---8-7----------8--|
D|------------------------------------10-|
A|------------------------------------10-|
E|------------------------------------8--|

Бой на гитаре (примерный вариант):

 
Поделись с друзьями:
 
 
Последние комментарии

"СПАСИБО!!!"
 

"Красивая и правдивая песня! На все времена! Всех вспомнили,никого не забыли! Спасибо!"
 

"давно искал! спасибо!"
 

"Отличный подбор! Это тебе не на амдм хлам. Спасибо!"
 

"нашла Ура!!!"
Статистика

Онлайн всего: 82
Гостей: 81
Пользователей: 1
Justas
Вход на сайт