Accordium Delectus Подборка аккордов
 
Главная > Е > Ефимыч > Мы теперь уходим понемногу

Ефимыч: Мы теперь уходим понемногу



Смотреть в тональности Am

Вступление:

          Hm           Em           F#                  Hm      
E|--------------------------------------------------------------|
H|-7--5---------7--5----5----8--7--5-5--------------------------|
G|-------7-7----------7------------------7--6----7--6--4-4------|
D|--------------------------------------------------------------|
A|--------------------------------------------------------------|
E|--------------------------------------------------------------|
           Hm            Em             F#                   Hm 
E|-10--9--7-7----10--9--7-9----12--10--9-9---7--6----10--9--7-7-|
H|--------------------------------------------------------------|
G|-11--9--7-7----11--9--7-9----12--11--9-9---7--6----11--9--7-7-|
D|--------------------------------------------------------------|
A|--------------------------------------------------------------|
E|--------------------------------------------------------------|

Hm             Em                     
Мы теперь уходим понемногу
F#                          Hm                            
В ту страну, где тишь и благодать
Hm                        Em                            
Может быть, и скоро мне в дорогу
F#                    Hm            F#       
Бренные пожитки собирать

Милые берёзовые чащи,
Ты, земля, и вы, равнин пески,
Перед этим сонмом уходящим
F#                         Hm                          
Я не в силах скрыть своей тоски

------------------------------------------------------------------------

   D                  A                       
Слишком я любил на этом свете
F#                      Hm                             
Всё, что душу облекает в плоть
Hm                      Em                                
Мир осинам, что, раскинув ветви,
F#                       Hm                    
Загляделись в розовую водь

Много дум я в тишине продумал,
Много песен про себя сложил
И на этой на земле угрюмой
Счастлив тем, что я дышал и жил

Счастлив тем, что целовал я женщин,
Мял цветы, валялся на траве,
И зверьё, как братьев наших меньших,
Никогда не бил по голове

Знаю я, что не цветут там чащи,
Не звенит лебяжьей шеей рожь
Оттого пред сонмом уходящим
Я всегда испытываю дрожь

Знаю я, что в той стране не будет
Этих нив, златящихся во мгле
Оттого и дороги мне люди,
Что живут со мною на земле

Окончание=Вступление
   
Последние комментарии

"Спасибо! отличная песня."
 

"Интересно кто так бездарно подбирает?! В оригинале слабо что ли?"
 

"Простая и в тоже время прекрасная,душевная песня.Спасибо!"
 

"Дзякуй"
 

"Показать окорды"
Статистика

Онлайн всего: 62
Гостей: 62
Пользователей: 0
Вход на сайт