Accordium Delectus Подборка аккордов
 
"
Главная > Е > Ефимыч > Не бродить, не мять в кустах багряных

Ефимыч: Не бродить, не мять в кустах багряных

(на стихи Сергея Есенина)
 


Вступление:

E|----------------------------------|
H|-2--3--5--6-------5-------6-------|
G|------------7---7---7---7---7---7-|
D|-2--3--5--7---7-------7-------7---|
A|----------------------------------|
         E|----------------------------------| - 2 раза

E|--------------------6-------5-------5--3~5~3--1---1---1---1---------|
H|-6--5~6~5-3-2-----------3-------5---------------3---------------3---|
G|--------------0---0---3---0---6---6-----------------2---------2-----|
D|-7--------------2-------------------------------0-------0-------0---|
A|------------0---------------0-------------------------------0-------|
E|--------------------3-----------------------------------------------|

E|-0--1--3--5-------4-------5--------0--1--3--5-------6-------5-------|
H|-2--3--5--6-------5-------6--------2--3--5--6-------6-------6-------|
G|------------7---7---7---7---7---7-------------7---7---7---7---7---7-|
D|-2--3--5--7---7-------7-------7----2--3--5--7---7-------7-------7---|
A|--------------------------------------------------------------------|
E|--------------------------------------------------------------------|

E|-5--3~5~3--1-3-------1-------0--------5--3~5~3--1---1---1---1-------|
H|-6--5------3-------------3-------5----------------3---------------3-|
G|---------------0---0---3---3---6---6------------------2---------2---|
D|-----------------2--------------------------------0-------0-------0-|
A|-------------0---------------0--------------------------------0-----|
E|---------------------3----------------------------------------------|

          Dm       Dm/F                   Gm    
Не бродить, не мять в кустах багряных
         A                        Dm
Лебеды и не искать следа
     Dm    Dm/F            Gm
Со снопом волос твоих овсяных
         A                            Dm
Отоснилась ты мне навсегда

          F                    Gm
С алым соком ягоды на коже,
     C                               F  A
Нежная, красивая, была
    Dm       Dm/F       Gm
На закат ты розовый похожа
              A                        Dm
И, как снег, лучиста и светла

Зёрна глаз твоих осыпались, завяли,
Имя тонкое растаяло, как звук,
Но остался в складках смятой шали
Запах мёда от невинных рук

Проигрыш=Вступление

В тихий час, когда заря на крыше,
Как котёнок, моет лапкой рот,
Говор кроткий о тебе я слышу
Водяных, поющих с ветром, сот

Пусть, порой, мне шепчет синий вечер,
Что была ты, песня и мечта,
Всё ж, кто выдумал твой гибкий стан и плечи,
К светлой тайне приложил уста

Не бродить, не мять в кустах багряных
Лебеды и не искать следа
Со снопом волос твоих овсяных
Отоснилась ты мне навсегда...

Окончание=Вступление
 
Поделись с друзьями:
 
 
Последние комментарии

"Песня юности..."
 

"Очень круто!)) Вот тебе и актерское пение!!"
 

"Тогда другим - с крутых яиц бульон"
 
Борис Блохин «БИРТМАН: Иволга

"Ну и хрень."
 

"Замечательная песня."
Настройка гитары
1-ая струна E (ми)  

2-ая струна H (си)  

3-я струна G (соль) 

4-ая струна D (ре) 

5-ая струна A (ля) 

6-ая струна E (ми) 
Статистика

Онлайн всего: 105
Гостей: 105
Пользователей: 0
Вход на сайт