Accordium Delectus Подборка аккордов
 
Главная > А > Агачев Эльдар > Для меня ты зажигала звёзды

Эльдар Агачев: Для меня ты зажигала звёзды



Вступление:

E|-----------------|

H|-----------------|

G|-----2---2---2---|

D|---3---3---3---3-|

A|-5---------------|

         E|-----------------| - 4 раза


E|------------------------------------------------------------------|

H|------------------------------------------------------------------|

G|-----2---2---2-------2---2---2--------3---3---3-------3---3---3---|

D|---3---3---3---3---3---3---3---3----3---3---3---3---3---3---3---3-|

A|-5---------------5----------------1---------------1---------------|

E|------------------------------------------------------------------|

С той поры блуждающего        ветра                        


E|------------------------------------------------------------------|

H|------------------------------------------------------------------|

G|-----5---5---5-------5---5---5--------2---2---2-------2---2---2---|

D|---5---5---5---5---5---5---5---5----3---3---3---3---3---3---3---3-|

A|-3---------------3----------------5---------------5---------------|

E|------------------------------------------------------------------|

Гаснут искры нашего       огня                         


E|------------------------------------------------------------------|

H|------------------------------------------------------------------|

G|-----2---2---2-------2---2---2--------3---3---3-------3---3---3---|

D|---3---3---3---3---3---3---3---3----3---3---3---3---3---3---3---3-|

A|-5---------------5----------------1---------------1---------------|

E|------------------------------------------------------------------|

Я б хотел зимой увидеть       лето,                       


E|------------------------------------------------------------------|

H|------------------------------------------------------------------|

G|-----5---5---5-------5---5---5--------2---2---2-------2---2---2---|

D|---5---5---5---5---5---5---5---5----3---3---3---3---3---3---3---3-|

A|-3---------------3----------------5---------------5---------------|

E|------------------------------------------------------------------|

Ярости сияния твоих       глаз                       


Припев:

B                     C            Dm         
Для меня ты зажигала звёзды,
B                      C                 Dm    
Как во сне казалось всё вокруг
B                      C               Dm
Я ловил, как ловят чистый воздух,
B                    C             Dm     
Каждое движение твоих губ

Проигрыш: B  Dm

Dm                                       B             
Хочется к груди твоей прижаться,
C                                  Dm       
Хочется обнять, поцеловать,
Dm                                     B             
Хочется с тобой одной остаться,
C                                     Dm     
Хочется "люблю" тебе сказать

Припев.

Проигрыш: B  Dm - 2 раза

С той поры блуждающего ветра
Гаснут искры нашего огня
Я б хотел зимой увидеть лето,
Ярости сиянья твоих глаз

Припев.

Я ловил, как ловят чистый воздух,
Каждое движенье твоих губ,
Каждое движенье твоих губ,
Каждое движенье твоих губ...

Бой на гитаре (примерный вариант):

 


 
Последние комментарии

"Супер"
 

"хороший разбор. респект"
 

"СУПЕР!!!"
 

"очень нравится эта песня..."
 

"Я не поняла??? Это Шпаликов??? Это стихи Бориса Рыжего!"
Статистика

Онлайн всего: 100
Гостей: 100
Пользователей: 0
Вход на сайт