Accordium Delectus Подборка аккордов
 
Главная > Ф > Фролова Елена > Быть одиноким не к лицу

Елена Фролова: Быть одиноким не к лицу

(на стихи Леонида Губанова)
 



Вступление (примерный вариант перебора):

    Dm     Gdim7    Dm     Gdim7  Gdim7(2) Fdim7    Gdim7(3)   
E|----------------------------------------------------------|
H|----------------------------------------------------------|
G|-2-------3-------2-------3-------6-------10--------9------|
D|---0-------2-------0-------2-------5--------9--------8----|
A|-----1-0-----4-0-----1-0-----4-0-----7-0------11-0-----10-|
E|-1-------3-------1-------3-------6-------10--------9------|
    Dm     Gdim7      
E|-----------------|
H|-----------------|
G|-2-------3-------|
D|---0-------2-----|
A|-----1-0-----4-0-|
         E|-1-------3-------| - 4 раза

Dm             Gdim7 Dm         Gdim7   
Быть одиноким    не к лицу
Dm               Gdim7 Gdim7(2) Dm          
Любви, преда-а-ниям и    вере
Gdim7                Dm   Gdim7                 Dm           
А как же быть,         когда к венцу
Gdim7               Gdim7(2) Gdim7(3) Dm                 
Метут нас ца-а-рские      метели?

Gdim7        Gdim7(2) Gdim7(3) Dm              
Я босиком пришёл  терпеть
Gdim7                 Gdim7(2) Gdim7(3) Dm                
Людских грехов людские     гвозди
Gdim7               Dm   Gdim7            Dm         
А как же быть,         когда тебе
Gdim7             Gdim7(2) Gdim7(3) Dm                
Любви обгло-о-данные      кости

Gdim7           Gdim7(2) Gdim7(3) Dm            
Бросают так    из-за   стола,
Gdim7             Gdim7(2) Gdim7(3) Dm                  
Как будто ты    не мира      этого,
Gdim7            Dm      Gdim7            Dm          
А незнакомец,          что с утра
Gdim7                 Dm      Gdim7    Dm                  
Попутал двор с попутным ветром

Проигрыш:

  Gdim7    Dm         
E|-----------------|
H|-----------------|
G|-3-------2-------|
D|---2-------0-----|
A|-----4-0-----1-0-|
         E|-3-------1-------| - 4 раза

Gdim7                  Dm Gdim7             Dm               
Но тушат свет          и тянут спать,
Gdim7          Gdim7(2) Gdim7(3) Dm               
И в ледяные      лбы    целуют,
Gdim7          Dm Gdim7            Dm             
И я могу           не ревновать,
Gdim7           Gdim7(2) Gdim7(3) Dm            
Не ревновать    тебя,  земную

Gdim7          Gdim7(2) Gdim7(3) Dm            
А на столе     свеча      горит,
Gdim7          Gdim7(2) Gdim7(3) Dm             
Горит душа        моя,   не тает,
Gdim7                Dm     Gdim7      Dm            
И Ангел с Богом          говорит,
Gdim7            Gdim7(2) Gdim7(3) Dm      
            И Бог над А-а-нгелом   рыдает...

И Ангел с Богом говорит,
     И Бог над Ангелом рыдает...

Проигрыш:

  Gdim7    Dm        
E|-----------------|
H|-----------------|
G|-3-------2-------|
D|---2-------0-----|
A|-----4-0-----1-0-|
        E|-3-------1-------| - 8 раз

Повтор первого куплета.

Окончание:

  Gdim7    Dm                  Gdim7  Gdim7(2) Gdim7(3)     
E|-----------------|          E|--------------------------|
H|-----------------|          H|--------------------------|
G|-3-------2-------|          G|-3-------6-------9--------|
D|---2-------0-----|          D|---2-------5-------8------|
A|-----4-0-----1-0-|          A|-----4-0-----7-0-----10-0-|
E|-3-------1-------| - 6 раз  E|-3-------6-------9--------|
  Gdim7(4)                     Dm   
E|-------------|           E|----|
H|-------------|           H|----|
G|-12----------|           G|-10-|
D|----11-------|           D|----|
A|-------13-12-|           A|----|
E|-12----------| - 4 раза  E|-10-|
 
Поделись с друзьями:
 
 
Последние комментарии

"Спасибо! отличная песня."
 

"Интересно кто так бездарно подбирает?! В оригинале слабо что ли?"
 

"Простая и в тоже время прекрасная,душевная песня.Спасибо!"
 

"Дзякуй"
 

"Показать окорды"
Статистика

Онлайн всего: 43
Гостей: 43
Пользователей: 0
Вход на сайт