Accordium Delectus Подборка аккордов
 
Главная > Ф > Фролова Елена > Догорай уголёк

Елена Фролова: Догорай уголёк



Играется перебором "восьмёрка": бас, 3-я, 2-я, 3-я, 1-я, 3-я, 2-я, 3-я

Вступление:

|Dm  Dm|

                 Gm6      A7    Dm
Догорай уголёк в моей печи,
       Dm7        Em7-5  A7    Dm
Засыпай, мой сынок, не кричи
                   Gm6            A7        Dm
Никому не скажу - день и так пройдёт,
          Dm7       Em7-5 A7    Dm
Чью печаль сторожу, чей полёт
     Dm7        Em7-5        A7       Dm
Ни заветов, ни слёз, ни обид, ни битв,
      Dm7   Em7-5         A7  Dm
Белый ветер унёс серебро молитв


Укачаю твой сон да усну сама,
На малиновый звон набежит зима
Золотой петушок раскричит зарю...
До чего ж хорошо тут у нас, в Раю -
Ни заветов, ни слёз, ни обид, ни битв,
Белый ветер унёс серебро молитв...

                 Gm6      A7    Dm
Догорай уголёк в моей печи,
      Dm7         Em7-5 A7     Dm
Засыпай, мой сынок, не кричи
                      Dm7          Em7-5   A7sus4 A7
Засыпай, мой сынок...

Окончание:

  Dm7      Em7-5    A7sus4 A7  Dm       Dm7    Em7-5    A7sus4 A7   
E|--------------------------------1--------1--------0--------------|
H|-----3----------3----3---2--------3--------3--------3----3---2---|
G|---2---2------0---0----0---0--------2--------2--------0----0---0-|
D|------------------------------0----------------------------------|
A|-3----------1--------0---0-------------3--------1--------0---0---|
E|-----------------------------------------------------------------|
Засыпай, мой сынок...                                                  

  Dm       Dm7    Em7-5    A7sus4 A7  Dm                             
E|---1--------1--------0---------------------1----------------------|
H|-----3--------3--------3----3---2--------3------------------------|
G|-------2--------2--------0----0---0----2--------------------------|
D|-0-----------------------------------0----------------------------|
A|----------3--------1--------0---0---------------------------------|
E|------------------------------------------------------------------|
 


 
Последние комментарии

"Спасибо"
 

"Антон, спасибо! На Татьянин день вспоминали лучший Универ И никак не могла вспомнить пару строк. думала не найду уже, а тут такой подарок)))"
 

"прекрасная песня нет слов"
 

"Чудесная песня, Прослушала много раз. Спасибо Авторам и певцам."
 

"ВИА Поющие гитары Печаль -беда = Сарафанная молва ! Кто же первый?"
Статистика

Онлайн всего: 131
Гостей: 131
Пользователей: 0
Вход на сайт