Accordium Delectus Подборка аккордов
 
Главная > Ф > Фролова Елена > Кукушечка

Елена Фролова: Кукушечка



     E                 H  E           A  E H     E   A       E   H    E  
E|-------------7---7-------------7--9--7---9---7-7-9---9>7-----9-7----|
H|-9-----7-9-----9---7---------9---------9-----------------9--------7-|
G|----------------------9---------------------------------------------|
D|--------------------------------------------------------------------|
A|--------------------------------------------------------------------|
E|--------------------------------------------------------------------|
  Ку----ку-ет куку-ушечка,    за-а са-до-о-ом куку-ет ку--ку--ше-ечка  
            H    A   E  
E|---7------------|
H|-9---7--7-9-----|
G|------------9---|
D|--------------9-|
A|----------------|
E|----------------|
  За-а-а зелё-оным 

Плакала же Марьюшка,
За столом плакала Ивановна,
За дубовым

"Ах, кто меня бедную
Утешит? Кто меня несчастную
Утешит?"

Утешает Машеньку,
Свет-матушка утешает Ивановну,
Свет-батюшка

Да их утешеньеце
Сердечное, хоть оно сердечное,
Не вечное

Утешает Марьюшку
Сергей-сударь, утешает Ивановну
Алексеевич

Его утешеньице
Сердечное, самое сердечное
И вечное
 
Ещё песни:
 

 
 
Последние комментарии

"Спасибо! отличная песня."
 

"Интересно кто так бездарно подбирает?! В оригинале слабо что ли?"
 

"Простая и в тоже время прекрасная,душевная песня.Спасибо!"
 

"Дзякуй"
 

"Показать окорды"
Статистика

Онлайн всего: 54
Гостей: 54
Пользователей: 0
Вход на сайт