Accordium Delectus Подборка аккордов
 
Главная > Ф > Фролова Елена > Знаешь, я видела во сне

Елена Фролова: Знаешь, я видела во сне



Примерный вариант


Знаешь, я видела во сне, как ты летаешь,
Как бережно ты к небу приникаешь
Метущейся и нежною душой

Таешь, меня одну на свете оставляешь,
Я видела во сне, как ты летаешь,
Ты издали махнула мне рукой

Припев:

И небо любит тебя,
Ты слышишь, любит тебя,
Так тихо любит тебя,
Как я не умею, прости...

Куплет:

E|-8-------7-------8-7-8-7-8-7-----7-------5-------7-5-7-5-7-5--------|

H|-6-6---6---6---6-6-----------6---5-5---5---5---5-5-----------5------|

G|-7---7-------7---7-------------7-5---5-------5---5-------------5----|

D|-0---------------0---------------5---------------5------------------|

A|--------------------------------------------------------------------|

E|--------------------------------------------------------------------|

 

E|-5-------4-------------------0---------0----------------------------|

H|-6-6---6---6-----------3-3-------1----------------------------------|

G|-4---4-------4-------2-----1---1-----2-------0----------------------|

D|-0-----------------3---------------2-------2---2--------------------|

A|---------------0-2---------------0-------0--------------------------|

E|-------------------------0------------------------------------------|


Припев:

E|----------------------------------------------------------------------------------|

H|-1--------1--3--3-------1-------0--------3--------3-------2-------0-------2-------|

G|-2-2---2--0--0--0---0-------0-------0----0---0----0---0-------0-------0-------0---|

D|-3---3----0--0--2-2---2---2---2---2---2--0-0---0--2-2---2---2---2---2---2---2---2-|

A|-3--------------3------------------------1--------0---------------0---------------|

E|----------3--3--------------------------------------------------------------------|

 

E|-3-------1-------0-------1------------------------------------------------|

H|-3---3-------3-------3-----3----------------------0-----------------------|

G|-2-2---2---2---2---2---2-----2-------2--------1-------1-------------------|

D|-0---------------0-----------------3---3----2---2---2---2-----------------|

A|-------------------------------0-2----------------------------------------|

E|------------------------------------------0-------------------------------|


 
Последние комментарии

"хорошая песня и разбор хорош"
 

"второй аккорд в припеве АШ, не в тему"
 

"молодец"
 

"а где найти ноты к этой песне"
 

"Исполнение просто супер,нет слов,с душой тревогой в душе!!!Можно слушать и слушать???"
Статистика

Онлайн всего: 98
Гостей: 98
Пользователей: 0
Вход на сайт