Accordium Delectus Подборка аккордов
 
Главная > Песни из кино - и мультфильмов > В сиреневых сумерках

Елена Камбурова: В сиреневых сумерках (фильм Однажды 20 лет спустя)




Вступление:

E|-------------7---5-----------5-------5-----------|

H|-0-5-7-8---------------8-7-8-----0-------8-----7-|

G|---------5---------------------5-----------------|

D|-------------------------------------------------|

  Em      Am              D7      G                 

E|-----------------0-----------------------3-------|

H|-----0-------1-----1---------1-------0-----0-----|

G|---0---0---2---2-----2-----2---2---0---0-----0---|

D|-----------------------2-----------------------0-|

A|---------0---------------0-----------------------|

E|-0-------------------------------3---------------|


E|-------------------------------------------------|

H|-5-7-8-0-----8---7-----------8---7--------6---5--|

G|-------------------------------------------------|

D|---------8-------------8-7----------7-6----------|

   C       F#             H7           E7            

E|---------------------------------2------------0--|

H|-----1-----------2-------------0--------------3--|

G|---0---0-----3-----3---------2--------------1----|

D|-----------4---4-----4-----1--------------2------|

A|-3---------------------4-2--------------2--------|

E|---------2----------------------------0----------|


        Dm
В сиреневых сумерках
   G7                 C      
Летят снежинки белые,
Am                Dm        
И в парке заброшена
    H7              Em
Печальная скамья

                                           Gm6      Gm/D-A7/C#
В судьбе моей и в памяти
                                        Dm       Dm+7-Dm7
Любовь осталась первая,
                F7
Любовь моя далёкая
    E7               Am         
Зовёт меня, хранит меня

В судьбе моей и в памяти
Любовь осталась первая,
Любовь моя далёкая
Зовёт меня, хранит меня

Проигрыш=Вступление

В сиреневых сумерках
Летят снежинки чистые,
Обиды и горести
Людские хороня

И давняя любовь моя
Останется единственной
Любовь моя далёкая
Зовёт меня, хранит меня

И давняя любовь моя
Останется единственной
Любовь моя далёкая
   Зовёт меня, хранит меня...
 


 
Последние комментарии

"Спасибо! отличная песня."
 

"Интересно кто так бездарно подбирает?! В оригинале слабо что ли?"
 

"Простая и в тоже время прекрасная,душевная песня.Спасибо!"
 

"Дзякуй"
 

"Показать окорды"
Статистика

Онлайн всего: 45
Гостей: 45
Пользователей: 0
Вход на сайт