Accordium Delectus Подборка аккордов
 
Главная > E > Eloy > Sunset

Eloy: Sunset



Вступление: Emadd9 - 12 раз

1-я часть

Emadd9       G              Emadd9       G           

E|--------------------------------------------------|

H|-----------3-------------------------5-3----------|

G|------4---------4-2-4----2-0------4---------4-2-4-|

D|-2---------------------------2--------------------|


       Emadd9       G          G-G/F#                

E|--------------------------------------------------|

H|------3-5-------5-3-------------------------------|

G|-2-4---------4---------4-2-4----------------------|

D|--------------------------------------------------|


       A        Emaj9          A       Asus2         

E|---------------------------------------9---------|

H|-----2-------5--4---5-7-----------2--------------|

G|-2-4------2-------------4----2-------------------|

D|-------------------------------------------------|

------------------------------------------------------------------------

2-я часть


Emadd9        G                    Emadd9          G              

E|------------10--------------------------------12-10------------|

H|------12----------12-10-12----10---------12-----------12-10-12-|

G|-9-------------------------------12-9--------------------------|

D|---------------------------------------------------------------|


      Emadd9          G               G-G/F#                     

E|-----------------12-10-----------------------------------------|

H|-10---------12------------12-10-12-----------------------------|

G|----12-9-------------------------------------------------------|

D|---------------------------------------------------------------|


         A          Emaj9               A   Asus2                 

E|-------9--------12--11----12-14-------9------------------------|

H|-10-12------10------------------12----------10-----------------|

G|---------------------------------------------------------------|

D|---------------------------------------------------------------|

------------------------------------------------------------------------

3-я часть


Emadd9                    G                  Emadd9        G             

E|-12----10------------12-10----------------------------12-10------------|

H|----------12---10-12---------12-10-12---10---------12---------12-10-12-|

G|-------------------------------------------12-9------------------------|

D|-----------------------------------------------------------------------|


          Emadd9        G                     Emadd9 

E|-------10-12----19----15-------10----------10-12...

H|-10-12----------------------12-------10-12------...

G|------------------------------------------------...

D|------------------------------------------------...

 


 
Последние комментарии

"Спасибо! отличная песня."
 

"Интересно кто так бездарно подбирает?! В оригинале слабо что ли?"
 

"Простая и в тоже время прекрасная,душевная песня.Спасибо!"
 

"Дзякуй"
 

"Показать окорды"
Статистика

Онлайн всего: 46
Гостей: 46
Пользователей: 0
Вход на сайт