Accordium Delectus Подборка аккордов
 

Евгений Братцев: Тишина



Вступление (примерный вариант перебора):

E|-------------0------------------------0------------|

H|-------0-----------0------------0-----------0------|

G|-----5---5-------5---5--------5---5-------5---5----|

D|---7-------7---7-------7----5-------5---5-------5--|

A|-0------------------------0------------------------|

E|---------------------------------------------------|

 

E|---------------------------------------0-----------|

H|-------0------------0------------1-----------1-----|

G|-----5---5--------5---5--------2---2-------2---2---|

D|---4-------4----3-------3----2-------2---2-------2-|

A|-0------------0------------0-----------------------|

         E|---------------------------------------------------| - 2 раза


                     Am                            Dm  Dsus2 Dm
Прошу тебя, сегодня помолчи,
 G                      G/H                    C      E 
Не говори мне глупость с умным видом
                       Am                        Dm  Dsus2 Dm
Мне нравится молчание ночи,
              E  E7/H       Am   
Где забываю на тебя обиду

               A7           A7/C#       Dm Dm/C
Как ранит твоё слово, походя,
       G/H            G            C     E
Болтание с подругами часами
           Am              Am/C                Dm Dm/H
Всё ни о чём, всё для других, а я
               E    E7/H            Am   
В тиши ночи общаюсь с небесами


И рад бы я с тобой поговорить,
Раскрыть тебе все тайны и печали,
Но так, чтобы глаза не отводить,
Но так, чтоб слушали и отвечали

Мне нравится язык глухонемых -
Там даже замечают, кто как дышит
И тишина - извечный спутник их,
И их глаза, которые услышат

Проигрыш=Вступление (1 раз)

                     Am                            Dm  Dsus2 Dm
Прошу тебя, сегодня помолчи,
 G                           G/H         C     E 
Пусть этот день закроет тихо очи
                  Am                          Dm  Dsus2 Dm
Я радуюсь молчанию ночи,
                      E       E7/H          Am     Asus2
Где тишина, как девочка, хохочет
 


 
Последние комментарии

"Из всех вариантов этот лучший👍🏻"
 

"Классная песня!"
 

"Оычень мелодичная задушевная песня."
 

"единственный правильный текст песни."
Статистика

Онлайн всего: 69
Гостей: 68
Пользователей: 1
Justas
Вход на сайт