Accordium Delectus Подборка аккордов
 
Главная > К > Качалин Евгений > Забродившее время

Евгений Качалин: Забродившее время

(на стихи Сергея Самойленко)
 


Вступление (примерный вариант):

E|-0-8-8-8-8-8---7---5-----5-----5---7-7-7-7---5---3-----3-----3-|
H|-----------------------4-----------------------------1---------|
G|-------------7-------5-----5---------------5-------0-----0-----|
D|-----------------4-----------4---------------------------------|
A|---0-------------------------------------------3-----------3---|
E|---------------------------------0-----------------------------|

E|---0-0-0-0---0------5-5-5--5-5--7----------0-------------------|
H|---1-1-1-1---1------7-7-7--7-7--8------0-------0---------------|
G|-----------2---2---------------------1---1---1---1-------------|
D|-----------------0---------------------------------------------|
A|-0-------------------------------------------------------------|
E|-----------------------------------0---------------------------|

E|---5-5-5-5--3----2----2--------3-3-3-3--2---0----0-------------|
H|---5-5-5-5--1----0----0--0-----0-0-0-0--0---1----1--1----------|
G|---------------------------2--------------------------0--------|
D|---------------------------------------------------------------|
A|-0-------------2----2---------------------3----3---------------|
E|-----------------------------0---------------------------------|

E|---0-0-0-0---------------------0-------0-----------0-----------|
H|---1-1-1-1--1-------4-4-4--4-4-0---0-----------0-------0-------|
G|--------------2-----2-2-2--2-0---0---0---0---0---0---0---0-----|
D|------------------4--------------------------------------------|
A|-0--------------2----------------------------------------------|
E|-----------------------------0-------------0-------------------|

          Em                          F#dim7
В запаянном объёме тишины
      C                                          H7
Раздался звук расшатанной струны,
   Am                 H7                        Em    Em+7
Одолевая    герметичность мрака

С прессованного грузом духоты
До абсолютной глухонемоты
                     Am       H7                     Em     D9 E7/G#
Стекла, желающего стать бумагой

       Am                                     H7
Во тьме растёт четырёхмерный лес
     Em                                   Gdim7
Воды, отвесно рухнувшей с небес
Am                        D                G     E    
В рассохшиеся слуховые щели

    Am                                   H7    
По закоулкам водосточных труб...
      Em           Em7              C   
Так мы узнали назначение губ,
         Am               H7            Em     H7
Которые лишь говорить умели

--------------------------------------------------------

Мы тонем, мы забыли все слова,
Остались губы, чтобы целовать,
Ещё есть осязание и зрение

Сплетая два дыхания в одно,
Мы обменяем их, пока темно,
И перепутаем сердцебиения

Наполнены ладони до краев
Безмолвствующим запахом цветов
И обморочным бормотанием ночи,

И музыки зелёный водоём
Во взгляде отражается твоём,
             Am               H7        Em     Em+7
И тишина молчания короче

Проигрыш:

E|-0-8-8-8-8-8---7---5-----5-----5---7-7-7-7---5---3-----3-----3-|
H|-----------------------4-----------------------------1---------|
G|-------------7-------5-----5---------------5-------0-----0-----|
D|-----------------4-----------4---------------------------------|
A|---0-------------------------------------------3-----------3---|
E|---------------------------------0-----------------------------|

E|---0-0-0-0---------------------0-------0-----------0-----------|
H|---1-1-1-1--1-------4-4-4--4-4-0---0-----------0-------0-------|
G|--------------2-----2-2-2--2-0---0---0---0---0---0---0---0-----|
D|------------------4--------------------------------------------|
A|-0--------------2----------------------------------------------|
E|-----------------------------0-------------0-------------------|

   Am                              H7
И ночь уже короче тишины,
  Em                               Gdim7
Поэтому слова нам не нужны –
Am                            D                       G      E   
Их слишком мало или слишком много

   Am                                        H7
Пока в разъёме губ шумит листва,
  Em           Em7                 C  
Она не виновата, что мертва,
                Am             H7             Em    D9 E7/G#
И этого не знает, слава Богу!

Пока в разъёме губ шумит листва,
Она не виновата, что мертва,
          Am             H7             Em    Em+7
И этого не знает, слава Богу!

Окончание:

E|-0-8-8-8-8-8---7---5-----5-----5---7-7-7-7---5---3-----3-----3-|
H|-----------------------4-----------------------------1---------|
G|-------------7-------5-----5---------------5-------0-----0-----|
D|-----------------4-----------4---------------------------------|
A|---0-------------------------------------------3-----------3---|
E|---------------------------------0-----------------------------|

E|---0-0-0-0---0------5-5-5--5-5--7----------0-------------------|
H|---1-1-1-1---1------7-7-7--7-7--8------0-------0---------------|
G|-----------2---2---------------------1---1---1---1-------------|
D|-----------------0---------------------------------------------|
A|-0-------------------------------------------------------------|
E|-----------------------------------0---------------------------|

E|---5-5-5-5--3----2----2--------3-3-3-3--2---0----0-------------|
H|---5-5-5-5--1----0----0--0-----0-0-0-0--0---1----1--1----------|
G|---------------------------2--------------------------0--------|
D|---------------------------------------------------------------|
A|-0-------------2----2---------------------3----3---------------|
E|-----------------------------0---------------------------------|

E|---0-0-0-0---------------------0-------0-----------0---------0-|
H|---1-1-1-1--1-------4-4-4--4-4-0---0-----------0-------0-----0-|
G|--------------2-----2-2-2--2-0---0---0---0---0---0---0---0---0-|
D|------------------4------------------------------------------2-|
A|-0--------------2--------------------------------------------2-|
E|-----------------------------0-------------0-----------------0-|
 
Последние комментарии

"Во!"
 

"Посмотрела этот мульт с ребёнком, так понравилась песня - начала её искать специально ☺... Жаль что сейчас такие не пишут"
 

""Ласковый май" вернулся"
 

"Безумно красивая композиция"
 

"Текст не соответствует заявленному! Примите меры."
Вход на сайт