Accordium Delectus Подборка аккордов
 
Главная > М > Маргулис Евгений > Чёрно-белое кино

Евгений Маргулис: Чёрно-белое кино



Вступление:

  D11                                 G6                              
E|------------0-----------------0-----------------0-----------------0-|
H|------3-----------------3-----------------3-----------------3-------|
G|---------0-----------------0------------0----0------------0----0----|
D|----4-----------------4---------------------------------------------|
A|-3-----------------3-----------------2-----------------2------------|
E|--------------------------------------------------------------------|
  D11                                 Em7                G6             
E|------------0-----------------0-----------------0-----------------0-|
H|------3-----------------3-----------------3-----------------3-------|
G|---------0-----------------0------------0----0------------0----0----|
D|----4-----------------4---------------------------------------------|
A|-3-----------------3-----------------------------------2------------|
E|-------------------------------------0------------------------------|

D11                                                     
Чёрно-белое кино без сюжета и героя,
Em7                                                                          
Режиссёра нет давно, не вернулся из запоя
D11                                                                   
Заросла его тропа беленою и крапивой,
Em7                                                                          
Взял и вылетел в окно, это было некрасиво

Бросил пару скучных слов и пропал, как будто не был,
Я был к этому готов, стоя под открытым небом
Между делом и толпой, между звёздами и хламом,
С непокрытой головой и турецким барабаном

Чёрно-белые актёры глянут на меня с укором
И потащат в свои норы, разводя на разговоры
Будут ссориться и спорить, доедая мухоморы,
И пытаться всё достроить, что не сделал режиссёр

Чёрно-белые картинки затянуло паутиной,
Всё похоже на поминки, но с удвоенною силой
По-английски попрощаюсь и исчезну аккуратно,
Совершенно не смущаясь, что мне нет пути обратно

Чёрное, белое, чёрное и белое,
Чёрное и белое, только не горелое
Чёрное, белое, чёрное и белое,
Всё давно унылое, всё давно постылое

D11                                             Em7 
Чёрное, белое, чёрное и белое кино...
 


 
Последние комментарии

"Замечательно!"
 

"Класс"
 

"Моя любимая песня. Слова и музыка трогают душу и придают бодрое настроение!"
 

"спасибо"
 

"Песня огонь!"
Статистика

Онлайн всего: 36
Гостей: 36
Пользователей: 0
Вход на сайт