Accordium Delectus Подборка аккордов
 

Евгений Осин: Осень

 

Вступление:

E|-0-------3---0-------------2--------0-------3---0----------5---|

H|-----0------------1---1--------4--------0----------------4---4-|

G|---0---0---0---0----2---2----2---2----0---0---0---0----5-------|

D|-2----------------2--------4--------2-------2--------4---------|

A|---------------------------------------------------------------|

E|---------------------------------------------------------------|

 

E|-0-------3---0-------------0--------0-------3-2-0----------5>8-|

H|-----0------------3---1--------4--------0---------3------4---7-|

G|---0---0---0---0----2---2----2---2----0---0------------5-----8-|

D|-2-------2--------2--------4--------2-------2-2-2----4---------|

A|---------------------------------------------------------------|

E|---------------------------------------------------------------|


Em                       Am   H7              Em         
Осень краской грусти мир нарисовала,
 Em                      Am   D7             G          
Тень от жёлтых улиц на меня упала
E7                 Am      D7               G           
Я один по листьям прошагаю вволю,
C                    Am   F#                   H7      
Дуй осенний ветер, я с тобой не спорю

Припев:

E7                                Am                              
Серый дождь осенний, барабань по крышам,
  D7              D7sus4  D7  G                 E7         
И ломай дере-е-вья, только я не слышу
        Am                          Em               
Я брожу по листьям, от дождей измятым,
F#                     H7           Em               
Осень всё узнала про мою утрату

Проигрыш: Em  Em  Am  H7 - 4 раза

На ресницах капли, но не слёзы это -
Это плачут тучи, вспоминая лето
И холодный вечер утопает в лужах,
Он тебе, бедняга, как и я не нужен

Припев.

Проигрыш: Am  D7  G  C  Am  H7  Em  E7     Am  D7  G  C  Am  F#  H7  H7

Припев.

Am                             Em                               
Я брожу по листьям, от дождей измятым,
F#                    H7    Em6 
Осень всё узнала...
 


 
Последние комментарии

"Если смотреть, например, в тональности Am, то как будто во второй строчке между Em и Am пропущен F"
 

"Я в восторге! Супер! Скачала себе, будем с сестрой петь.💘"
 

"В припеве вместо Am7 хочется G играть"
 

"Музыка Владимира Матецкого, слова Игоря Кохановского. Группа "Карнавал", вокал Владимир Кузьмин"
 

"а каким боем играть?"
Статистика

Онлайн всего: 45
Гостей: 45
Пользователей: 0
Вход на сайт