Accordium Delectus Подборка аккордов
 
Главная > О > Осин Евгений > Зимний вечер

Евгений Осин: Зимний вечер



В оригинале на полтора тона выше (Gm).

Можно проиграть этими же аккордами, поставив каподастр на 3-ем ладу

Вступление:

Соло:

       Am7       D7       G        C                        
E|--------------------------------------------------------|
H|--------------------------------------------------------|
G|-7---------7---------------7----------------------------|
D|---9-10------9-10----10-9-----9--7----------------------|
A|------------------------------------10------------------|
E|--------------------------------------------------------|

      Am        H7    Em     A7   Em                       
E|--------------------------------------------------------|
H|--------------------------------------------------------|
G|-4--------4--------5-4----------------------------------|
D|---5-7------5-7--------7-5-4-5--------------------------|
A|-------------------------------6-7----------------------|
E|--------------------------------------------------------|

|Am7  D7|G  C|Am  H7|Em A7 Em|

                    F#   H7           Em   Em6 
Зимний вечер, злится вьюга,
                    F# H7           Dm    E7
Мёрзнут ноги, мёрзнут руки
           Am7           D7          G        C   
Все спешат, все бегут от мороза в уют,
            Am        H7           Dm          E7
Только два чудака всё бредут и бредут

Все спешат, все бегут от мороза в уют,
                       Am        H7           Em A7 Em  
Только два чудака всё бредут 


В этот вечер мне не надо
Ни театра, ни эстрады,
Мне нужна только ты, только губы твои,
Чтобы их целовать от зари до зари

Мне нужна только ты, только губы твои,
Чтобы их целовать от зари до зари

Проигрыш:

         F#  H7     Em  Em6       F#  H7 Dm         E7      
E|--------------------------------------------------------|
H|--------------------------------------------------------|
G|-5---5-7---9---9-7-5--------5---7---9---5--4----4-------|
D|---7-----------------7----7---7---------------7---6-----|
A|--------------------------------------------------------|
E|--------------------------------------------------------|

      Am7       D7   G        C                            
E|--------------------------------------------------------|
H|--------------------------------------------------------|
G|-7-4-5----7-4-5----4--7--4------------------------------|
D|----------------------------7--5------------------------|
A|--------------------------------------------------------|
E|--------------------------------------------------------|

      Am        H7  Dm        E7                           
E|--------------------------------------------------------|
H|--------------------------------------------------------|
G|-4--------4--------4--4--5--7---------------------------|
D|---5-7------5-7-----------------------------------------|
A|--------------------------------------------------------|
E|--------------------------------------------------------|

      Am7       D7   G        C                            
E|--------------------------------------------------------|
H|--------------------------------------------------------|
G|-7-4-5----7-4-5----4--7--4------------------------------|
D|----------------------------7--5------------------------|
A|--------------------------------------------------------|
E|--------------------------------------------------------|

      Am        H7    Em     A7   Em                       
E|--------------------------------------------------------|
H|--------------------------------------------------------|
G|-4--------4--------5-4----------------------------------|
D|---5-7------5-7--------7-5-4-5--------------------------|
A|-------------------------------6-7----------------------|
E|--------------------------------------------------------|

В этот вечер всё случится -
Счастье в двери постучится,
И поймём что не зря в эти дни декабря
Мы друг друга нашли, словно два снегиря

Мы поймём что не зря в эти дни декабря
               Am         H7
   Мы друг друга нашли...

Окончание:

|Em A7| - 3 раза |Em|

Бой на гитаре (примерный вариант):

 
Последние комментарии

"Исковерканы текст и мелодия. Переделана под блатную. Из мажора - в минор?"
 

"Супер песня!Я обожаю!"
 

"Шикарная песня, шикарное исполнение"
 

"выше сяких похвал. почему не издана, только на виниле, который запретили."
 

"круто"
Вход на сайт