Accordium Delectus Подборка аккордов
 
Главная > Р > Росс Евгений > Берег Крыма

Евгений Росс: Берег Крыма



Смотреть в тональности Am

Вступление:

|Dm  Dm|G  G|Gm  A|Dm  A7+9| - 2 раза

|Dm  A|D7  Gm|C  C|F  A|

|Dm  A|D7  Gm|Gm  E7 A|Dm  A7+9|

E|----------------------------------------------------------------------8-|
H|------------------------------6-6-------------------------------------8-|
G|---5--7--5-7------5-7-5--7--5------7----5-7-5-7--7-9--9---5--7--5-7---6-|
D|-7--------------7-3-5-------------------3-5------5-7--7-7-------------7-|
A|-5--------------5---------------------------------------5---------------|
         E|------------------------------------------------------------------------| - 2 раза

  Dm      A    D7      Gm    C                F A        
E|------------------------------------------------------|
H|-6------5---------------------------------------------|
G|----------------8-7-5-5-------------7-5---------------|
D|----7------7-------------8----5-4-5-----5-8-7---------|
A|------------------------------------------------------|
E|------------------------------------------------5-4-5-|

  Dm      A    D7      Gm    E7       A      Dm  A7+9    
E|-------------------------------------------------8----|
H|-6------5----------------------------------------8----|
G|----------------8-7-5-5-----------7-7-6-4-6-7----6----|
D|----7------7-------------8----5-8----------------7----|
A|------------------------------------------------------|
E|------------------------------------------------------|

Dm                  A                Dm     
Южный берег за полоской дыма,
  D7                                    Gm 
Мой душещипательный рассказ
Gm                                 Dm     
Тёплый и уютный берег Крыма,
  E7                              A  
Море, ты и я, сияние глаз

Боже, я тобою очарован!
Боже, видно я схожу с ума!
Боже, я тобою околдован,
     E7                 A              Dm  A
Без тебя мне лето как зима!

Припев:

Dm        A       D7                                     Gm  
Берег Крыма, чайки раскричались над волной,
Gm                      Dm                             
За полоской дыма южный берег Крыма,
    Gm                         A                Cm  D7
Берег, там, где встретились с тобой
Gm                      Dm                             
За полоской дыма южный берег Крыма,
         Gm                         A                Dm   A7+9
Берег, там, где встретились с тобой


Dm             A               Dm       
Опьяняли южные просторы,
  D7                                         Gm
Выстрел в сердце твой наверняка
     Gm                                  Dm   
Ну что мне приговор от прокурора,
                  E7              A                 Cm  D7
Ведь плен твоих очей мне на века
      Gm                                 Dm     
Ну что мне приговор от прокурора,
               E7              A                Dm  A
Ведь плен твоих очей мне на века

Припев.

Проигрыш:

|Dm  Dm|G  G|Gm  A|Dm  A7+9| - 2 раза

Припев:

Берег Крыма, чайки раскричались над волной,
За полоской дыма южный берег Крыма,
Берег, там, где встретились с тобой
За полоской дыма южный берег Крыма,
        Gm                         A                Dm  B7+9
Берег, там, где встретились с тобой

Окончание:

|D#m  B|D#7  G#m|C#  C#|F#  B|

|D#m  B|D#7  G#m|G#m  F7 B|D#m  B7+9|D#m|

Бой на гитаре (примерный вариант):

 


 
Последние комментарии

"сильная песня"
 

"👍"
 

"Сила"
 

"Браво!"
 

"Спасибо Ирине, спасибо авторам песни... 💕"
Вход на сайт