Accordium Delectus Подборка аккордов Главная Отзывы Заявка на песню Аккорды Табы Новости Видео Статьи FAQ О сайте
А   Б   В   Г   Д   Е   Ё   Ж   З   И   Й   К   Л   М   Н   О   П   Р   С   Т   У   Ф   Х   Ц   Ч   Ш   Щ   Э   Ю   Я
 
A   B   C   D   E   F   G   H   I   J   K   L   M   N   O   P   Q   R   S   T   U   V   W   Y   Z                       0...9
"
Разделы сайта
                   
Настройка гитары
1-я струна E  

2-я струна H  

3-я струна G  

4-я струна D  

5-я струна A  

6-я струна E  
Главная > Л > Ланцберг Евгения > Снежная пыль

Евгения Ланцберг: Снежная пыль



Вступление:

Am

E|---0----0---------0----0----|

H|---1----1---------1----1----|

G|---2----2---------2----2----|

D|----------------------------|

A|-0----0---------0----0------|

E|-----------0--------------0-|

      H7                  E                 Am

E|------------------2----2--------------0----0-------------0----0----|

H|------------------0----0--------------0----0-------------1----1----|

G|------------------2----2--------------0----0-------------2----2----|

D|-----------0-2--1--------------------------------------------------|

A|-0-2---3-------------2----2----------------------------0----0------|

E|------------------------------------0----0----0------------------0-|

Будет снеж-на-я пыль       и блестящие рельсы ледовых коньков,               

    F                Dm6           E 

E|---------------------1----2-------------------------0----0---------|

H|---------------------1----0------------3----3-------0----0---------|

G|---------------------2----2------------2----2-------0----0---------|

D|------------0-2------------------------3----3----------------------|

A|-0---2--3----------------------------2----2----2-------------------|

E|------------------1-----1----1--------------------0----0----0------|

Их шуршание по льду, точно чирканье  спичек     в двойной темноте         

 F               Gm   A7      Dm        

E|:---------------1----2-----------3----0-------1----1---------------|

H|:---------------1----0-----------3----2-------3----3---------------|

G|:---------------2----2-----------3----0-------2----2---------------|

D|:--------0-2--------------------------------0----0-----------------|

A|:-0-2--3----------------------------0----0------------0------------|

E|:-------------1----1----1------3-----------------------------------|

Будет нова-я  быль да бушующий Цель-сий,  да  тишь на пруду,                

Am            F          E   Am     

E|---1----1---------0----0--------1----1---------0----0-------------:|

H|---3----3---------1----1--------1----1---------1----1-------------:|

G|---2----2---------2----2--------2----2---------2----2-------------:|

D|-0----0----3------------------------------------------------------:|

A|----------------0----0-----------------------0----0---------------:|

         E|--------------------------0---1----1-----0-------------0----------:| - 2 раза

           Ожидание  птичек,           любови, весны     и т.д.                                     


И т. д., и т. п., за витками витки - это штопора бой
С не желающей сдаться, вздыхающей пробкой в бутылке судьбы...
/Всё - навстречу тебе: от дрожания руки до владения собой,
Остаётся - остаться со мною, не робкой, вот так, без борьбы/ - 2 раза

Окончание:

         H7                  E               Am

E|------------------2----2--------------0----0---------------5-|

H|------------------0----0--------------0----0-------------5---|

G|------------------2----2--------------0----0-----------5-----|

D|-----------0-2--1--------------------------------------------|

A|-0-2---3-------------2----2----------------------------------|

E|------------------------------------0----0----0---4>5--------|

 
 
Новые добавления
Статистика

Онлайн всего: 26
Гостей: 26
Пользователей: 0

Яндекс.Метрика

Вход на сайт