Accordium Delectus Подборка аккордов
 
Главная > Песни из кино - и мультфильмов > Однажды морем я плыла

Евгения Смольянинова: Однажды морем я плыла (фильм Китайский сервиз)



E                           Fdim7   H         

E|-------------------------------------------------|

H|---9-9---9-9---9-9---9-9---9-9---9-9---7-7---7-7-|

G|---9-9---9-9---9-9---9-9---9-9---7-7---8-8---8-8-|

D|---9-9---9-9---9-9---9-9---9-9---9-9---9-9---9-9-|

A|-7-----------7-----------7-----8-----9-----------|

E|-------7-----------7-----------------------7-----|

Однажды морем   я  плыла  на па-а-роходе   том,                   

   H                                   E            

E|-------------------------------------------------|

H|---7-7---7-7---7-7---7-7---7-7---7-7---9-9---9-9-|

G|---8-8---8-8---8-8---8-8---8-8---8-8---9-9---9-9-|

D|---9-9---9-9---9-9---9-9---9-9---9-9---9-9---9-9-|

A|-9-----------9-----------9-----------7-----------|

E|-------7-----------7-----------7-----------7-----| 

Погода    чу-удная   была, и вдруг раздался шторм                
 
Припев:

   E                           Fdim7   H             

E|-------------------------------------------------|

H|---9-9---9-9---9-9---9-9---9-9---9-9---7-7---7-7-|

G|---9-9---9-9---9-9---9-9---9-9---7-7---8-8---8-8-|

D|---9-9---9-9---9-9---9-9---9-9---9-9---9-9---9-9-|

A|-7-----------7-----------7-----8-----9-----------|

E|-------7-----------7-----------------------7-----|

     Ой,   лей,     вей  туман, кружится    голова,                   

   H                                   E            

E|-------------------------------------------------|

H|---7-7---7-7---7-7---7-7---7-7---7-7---9-9---9-9-|

G|---8-8---8-8---8-8---8-8---8-8---8-8---9-9---9-9-|

D|---9-9---9-9---9-9---9-9---9-9---9-9---9-9---9-9-|

A|-9-----------9-----------9-----------7-----------|

E|-------7-----------7-----------7-----------7-----|

Едва    стою я       на ногах, но я ведь не пьяна!                   


А капитан приветлив был,
В каюту пригласил,
Бокал шампанского вина
Нам выпить предложил

Припев:

   E                           Fdim7   H             

E|-------------------------------------------------|

H|---9-9---9-9---9-9---9-9---9-9---9-9---7-7---7-7-|

G|---9-9---9-9---9-9---9-9---9-9---7-7---8-8---8-8-|

D|---9-9---9-9---9-9---9-9---9-9---9-9---9-9---9-9-|

A|-7-----------7-----------7-----8-----9-----------|

E|-------7-----------7-----------------------7-----|

     Ой,   лей,     вей  туман, кружится    голова,                   

   H                                   E     C      

E|------------------------------------------------|

H|---7-7---7-7---7-7---7-7---7-7---7-7---9-9---8--|

G|---8-8---8-8---8-8---8-8---8-8---8-8---9-9---9--|

D|---9-9---9-9---9-9---9-9---9-9---9-9---9-9---10-|

A|-9-----------9-----------9-----------7----------|

E|-------7-----------7-----------7-----------8----|

Едва    стою я       на ногах, но я ведь не пьяна!                 

Переход на пол-тона выше

   F                                    F#dim7     C                   

E|--------------------------------------------------------------------|

H|---10-10---10-10---10-10---10-10---10-10---10-10----8--8----8--8----|

G|---10-10---10-10---10-10---10-10---10-10---8--8-----9--9----9--9----|

D|---10-10---10-10---10-10---10-10---10-10---10-10----10-10---10-10---|

A|-8---------------8---------------8-------9-------10-----------------|

E|---------8---------------8--------------------------------8---------|

 Умейте     жить,     умейте     пить    и всё      от жизни     брать,                          

   C                                                  F               

E|--------------------------------------------------------------------|

H|----8--8----8--8-----8--8----8--8-----8--8----8--8----10-10---10-10-|

G|----9--9----9--9-----9--9----9--9-----9--9----9--9----10-10---10-10-|

D|----10-10---10-10----10-10---10-10----10-10---10-10---10-10---10-10-|

A|-10---------------10---------------10---------------8---------------|

E|----------8----------------8----------------8---------------8-------|

Ведь всё    равно       когда  -    нибудь   придётся               умирать!                              

Припев:

   F                                    F#dim7     C                  

E|------------------------------------------------------------------|

H|---10-10---10-10---10-10---10-10---10-10---10-10----8--8----8--8--|

G|---10-10---10-10---10-10---10-10---10-10---8--8-----9--9----9--9--|

D|---10-10---10-10---10-10---10-10---10-10---10-10----10-10---10-10-|

A|-8---------------8---------------8-------9-------10---------------|

E|---------8---------------8--------------------------------8-------|

     Ой,       лей,        вей      туман,  кружится              голова,                            

   C                                                  F               

E|--------------------------------------------------------------------|

H|----8--8----8--8-----8--8----8--8-----8--8----8--8----10-10---10-10-|

G|----9--9----9--9-----9--9----9--9-----9--9----9--9----10-10---10-10-|

D|----10-10---10-10----10-10---10-10----10-10---10-10---10-10---10-10-|

A|-10---------------10---------------10---------------8---------------|

E|----------8----------------8----------------8---------------8-------|

 Едва        стою я                на ногах,      но я ведь       не пьяна!                           

Умейте жить, умейте пить
И всё от жизни брать,
Ведь всё равно когда-нибудь
Придётся умирать!
 


 
Последние комментарии

"Спасибо! отличная песня."
 

"Интересно кто так бездарно подбирает?! В оригинале слабо что ли?"
 

"Простая и в тоже время прекрасная,душевная песня.Спасибо!"
 

"Дзякуй"
 

"Показать окорды"
Статистика

Онлайн всего: 48
Гостей: 48
Пользователей: 0
Вход на сайт