Accordium Delectus Подборка аккордов
 
Главная > К > Киркоров Филипп > Акапелла души

Филипп Киркоров: Акапелла души



Смотреть в тональности Am


Вступление (примерный вариант):

E|-------5------6------5------5-------5------6------5------5-|

H|-----3------3------3------3-------4------4------4------4---|

G|---3------3------3------3-------3------3------3------3-----|

D|-5---------------------------------------------------------|

A|------------------------------3----------------------------|

E|-----------------------------------------------------------|

 

E|-------5------5-------5------5-------5------5-------5------|

H|-----4------4-------7------7-------3------3-------7--------|

G|---5------5-------5------5-------3------3-------5----------|

D|-3--------------0--------------5--------------0------------|

A|-----------------------------------------------------------|

E|-----------------------------------------------------------|


   Gm     Dm     D#        B    
Горим, летим и жить спешим, 
                       Cm  F          Gm   D7sus4 D7
И не умеем на половину 
      Gm      Dm     D#                         B     
То свет, то тень, твоё сердце - как мишень,
       D#                   B            Fsus4 F
И опять в него стреляет новый день

                   D#      C/E                     F     D7
Но от ветров хранит меня твоя любовь

Припев:

Gm                                                 
Твоя любовь - акапелла души,
Cm                                                      
И это чувство сильнее, чем жизнь,
            F                       D7                   Gm             D7sus4 D7
И эти ноты звучат и звучат во мне "на бис"

Твоя любовь - акапелла души,
И ради этой любви стоит жить!
     Cm                  D7sus4 D7
Пусть звучит без слов,
  Cm         D7sus4      D7    Gm  
Светит, как маяк в ночи, любовь


Любовь, как сдвиг, любовь, как крик...
Если услышишь, если ты дышишь -
Лети на свет, сквозь дожди минут и лет,
Пусть любовь твоя найдёт на всё ответ

Счастлив тот, в ком вечная любовь живёт...

Припев.

Проигрыш: Gm  Gm  Cm  Cm  F  F  Gm  D7sus4 D7

                  B            C/E                      F    D7
Счастлив тот, в ком вечная любовь живёт…

Припев:

Твоя любовь - акапелла души,
И это чувство сильнее, чем жизнь,
И эти ноты звучат и звучат во мне "на бис"

Твоя любовь - акапелла души,
И ради этой любви стоит жить!
Пусть звучит без слов,
      Cm          D7sus4      D7     D#  B/D 
Светит, как маяк в ночи, любовь,
  Cm         D7sus4      D7    Gm  
Светит, как маяк в ночи, любовь

Примерный вариант боя:

 


 
Последние комментарии

"Песня и исполнение - супер, берет за душу до слез. Играю и пою ее каждый день. Спасибо автору и исполнителю за столь душевную музыку"
 

"Кто автор музыки и слов???"
 

"Понравилась песня."
 

"Здорово. По-моему. лучшее исполнение"
 

"Клаааас!"
Статистика

Онлайн всего: 31
Гостей: 31
Пользователей: 0
Вход на сайт