Accordium Delectus Подборка аккордов
 
Главная > Ж > Жиляк Фёдор > На обочине лета

Фёдор Жиляк: На обочине лета



Вступление:

      Gm7     C7     Fmaj7   Bmaj7    Gm7     Gm6   A7sus4    A7              

E|---------------------5-----5---------------------------------0-------------|

H|-----------3-5-----5-5---5---3-----3-------3-------3-3-----3-2-------------|

G|---------3-------3---5-5---------2-------3-------3-------0---0-------------|

D|-------3-------5-----3---------3-------3-------2-------2-----2-------------|

A|-------------3---------------1-----------------------0-------0-------------|

E|-----3-------------------------------3-------0-----------------------------|

Соло

E|---------------------------------------------------------------------------|

H|---------------------------------------------------------------------------|

G|-0-2-2>3-3---------0-0>2-2-------------------------------------------------|

D|-----------------3---------------2-3-3>5-5-------8-7>2------------2>3-2--0-|

A|----------------------------------------------------------------0----------|

E|---------------------------------------------------------------------------|


Dm                                 Gm7         
Обжигала красная рябина
C7                                             Fmaj7    
Поцелуем страстным белый клён
Bmaj7                                 Gm7              
И теряли мы своих любимых
A7                                            Dm          
Со словами: "Я в тебя влюблён!"

Dm                    Dm/C            Gm7       
А в объятиях сонного рассвета
C7                                         Fmaj7    
Не забыта нежность губ твоих
Bmaj7                                Gm7             
На обочине любви и лета -
A7                                         Dm        
Всполохи мгновений золотых

Припев:

                                 Gm7  C7                          Fmaj7         Bmaj7
На обочине лета  –  шелестящий звук ветра,
                   Gm7 A7                        Dm
На обочине лета    ты любовь не зови
                            Gm7 C7                   Fmaj7  Bmaj7
На обочине лета – эхо, но без ответа,
                   Gm7 A7                     Dm
На обочине лета – остановка любви


Завершили мы своё кружение,
Стали мы давно уже не те
На обочине любви скольжение...
Разве это то, что я хотел?

Где паденья наши и вершины?
Где ты, мой любимый человек?
Так зачем с тобою поспешили
Мы чужими стать на целый век

Припев:

На обочине лета – шелестящий звук ветра,
На обочине лета ты любовь не зови
На обочине лета – эхо, но без ответа,
                        Gm7 A7                     Dm  B7
На обочине лета – остановка любви

                            G#m7 C#7                          F#maj7  Hmaj7
На обочине лета    –   шелестящий звук ветра,
                   G#m7 B7                       D#m
На обочине лета     ты любовь не зови
                             G#m7 C#7                  F#maj7  Hmaj7
На обочине лета   –   эхо, но без ответа,
                    G#m7 B7                    G#m7
На обочине лета  –  остановка любви

Окончание:

     G#m7     C#7    F#maj7  Hmaj7   G#m7     B7     D#m                               

E|---------------------6-----6--------------------------------------------------------|

H|-----------4-6-----6-6---6---4-----4-------4-6-----6-------6-------6----------------|

G|---------4-------4---6-6---------3-------4-------7-------8---8---8---8--------------|

D|-------4-------6-----4---------4-------4-------6-------8-------8--------------------|

A|-------------4---------------2-----------------------6---------------6--------------|

E|-----4-------------------------------4-------6--------------------------------------|

Соло

E|-4-6-6>7-7---------4-4>6-6-------------------------------------------------6-7-9>11-|

H|-----------------7----------------6-7-7>9-9------9-7-----------6-7---6-7-9----------|

G|-----------------------------------------------------8-------8-----8----------------|

D|-----------------------------------------------------------8------------------------|

A|------------------------------------------------------------------------------------|

E|------------------------------------------------------------------------------------|

 


 
Последние комментарии

"Спасибо! отличная песня."
 

"Интересно кто так бездарно подбирает?! В оригинале слабо что ли?"
 

"Простая и в тоже время прекрасная,душевная песня.Спасибо!"
 

"Дзякуй"
 

"Показать окорды"
Статистика

Онлайн всего: 50
Гостей: 50
Пользователей: 0
Вход на сайт