Accordium Delectus Подборка аккордов
 
Главная > G > Gorky Park > Stranger

Gorky Park: Stranger



Вступление (табы):

E|------------------------------------------------------------------------|

H|-------4-------4----------4-------4----------3-------3----------0---1-3-|

G|-----0-----0------------0-----0------------0-------0----------0---------|

D|---6---------6--------6---------6--------3-------3----------3-----------|

A|-3-------------------------------------1--------------------------------|

         E|--------------------4-------------------------------------3-------------| - 2 раза

 

  Cm                 G#                  B                  G               

E|------------------------------------------------------------------------|

H|-------4-------4----------4-------4----------3-------3----------0---1-3-|

G|-----0-----0------------0-----0------------0-------0----------0---------|

D|---6---------6--------6---------6--------3-------3----------3-----------|

A|-3-------------------------------------1--------------------------------|

         E|--------------------4-------------------------------------3-------------| - 2 раза


  Gm    Csus2           
Stranger next to me, 
Fm      G#6         G   
Have I seen your face
  Cm     Csus2               
Stranger tell me please, 
 Fm       B         Hdim7
Have I seen this place

      Cm      Csus2             
Oh stranger you're so close 
Fm     G#6         G     
I can hold your hand
         Cm        Cm7/B           
I'm a stranger oh just like you 
  Fm         B      Hdim7
Don't you understand
      Cm        
Oh stranger...

Проигрыш:

  Cm                 G#                  B                  G

E|------------------------------------------------------------------------|

H|-------4-------4----------4-------4----------3-------3----------0---1-3-|

G|-----0-----0------------0-----0------------0-------0----------0---------|

D|---6---------6--------6---------6--------3-------3----------3-----------|

A|-3-------------------------------------1--------------------------------|

         E|--------------------4-------------------------------------3-------------| - 2 раза


Silence stopped the time 
I can hear your heart
Glimmer of your eyes 
Reach me from the dark

I'm dreaming or may be not 
Clothing's falling down
All matters we're giving up
Cause nothing matters now
                G#     G  Cm
Oh stranger

Припев:

 G#                          G              
Between the walls and face to face
Cm      Cm7/B        
Oh stranger
      G#             G                
We won't have another chance
Cm      Cm7/B         
Oh stranger

                 Fm          G               solo
There won't be another night


Flowers on the floor, 
All around your hair
Morning at the door, 
I don't think you care

You whisper in my ear, 
Shiver in my arms
Don't let it stop, don't go away
Screaming in your eyes
Oh stranger

Припев:

Between the walls and face to face
Oh stranger
We won't have another chance
Oh stranger

         Fm          G             
There won't be another night
Cm     Cm7/B        Gm 
We couldn't lie

          G#                 Gm            B
Oh stranger... (With me tonight)
               G#                  Gm              B
You're stranger... (With me all night)
       Fm             Gm        
My stranger, my stranger... 
Cm                          
We couldn't lie!

Проигрыш: 

G#  Cm  B  Fm     G#  Cm  D#  G# B        G#  Cm  B  Fm     G#  Cm  D#  G# B  Fm  Gm  G#  B  Cm  Csus2  Cm  Csus2

Припев:

Between the walls and face to face
Oh stranger
We won't have another chance
Oh stranger

         Fm          G             
There won't be another night
Cm    Cm7/B          Gm
We couldn't lie

          G#                 Gm             B
Oh stranger... (With me tonight)
              G#                  Gm             B
You're stranger... (With me all night)
       G#               B         
My stranger, my stranger...

Окончание (табы):

E|------------------------------------------------------------------------|

H|-------4-------4----------4-------4----------3-------3----------0---1-3-|

G|-----0-----0------------0-----0------------0-------0----------0---------|

D|---6---------6--------6---------6--------3-------3----------3-----------|

A|-3-------------------------------------1--------------------------------|

         E|--------------------4-------------------------------------3-------------| - 2 раза

Примерный вариант боя на гитаре:

 
Последние комментарии

""Ласковый май" вернулся"
 

"Безумно красивая композиция"
 

"Текст не соответствует заявленному! Примите меры."
 

"Сравните с исполнением Владимир Трошина"
 

"Класс. Настоящая песня со смыслом. А то превратили женщин элегантно года возраста а старух. А мы живые и очень даже."
Вход на сайт