Accordium Delectus Подборка аккордов
 
Главная > G > Gorky Park > Two Candles

Gorky Park: Two Candles



Можно сыграть перебором "восьмёрка": бас, 3-я, 2-я, 3-я, 1-я, 2-я, 3-я, 2-я

Вступление:

    Em             Cmaj7            Am7             Hm7               
E|-0-----3-----2---0-----3-----2---0-----3-----2---2-----5-------2-|
H|-----0---0-----------0---0-----------1---1-----------3-------3---|
G|---0-------0---0---0-------0---0---2-------2---2---4-------4-----|
D|---------------------------------------------------------4-------|
A|-----------------3---------------0---------------2---------------|
         E|-0---------------------------------------------------------------| - 2 раза

Emadd9           Cmaj7   Dadd11     
E|---------------------------------|
H|---------0-----------------------|
G|-------0---0---0-----0-------0---|
D|-----4-------4-----2---2---4---4-|
A|---2-------------3-------5-------|
         E|-0-------------------------------| - 2 раза

Em          H7/F#        G              
Loneliness         is my only guest,
Dm                     E             Am            
Who visits me alone at night,
Am>Am7>F                                                                       
When it comes I light two candles
Em                                   
Just the way it was
F#                                                         Am     H7
And pretend the flames become your eyes

Emptiness is a friend I guess -
The shadow played upon the wall
If I let the candles take me,
I can see your face
And remember hearing someone call your name

Припев:

Em                           D          Cadd9 Dsus2   
My candles are crying, oh-o-o,  oh-o
Em                           D          Cadd9 Dsus2   
My candles are crying, oh-o-o,  oh-o
                                                  Em Cmaj7 Am7 Hm7
They're crying for you,
                                                   Em Cmaj7 Am7 Hm7
They're waiting for you,
                     Em
I'm waiting for you

Проигрыш:

Emadd9           Cmaj7   Dadd11      
E|---------------------------------|
H|---------0-----------------------|
G|-------0---0---0-----0-------0---|
D|-----4-------4-----2---2---4---4-|
A|---2-------------3-------5-------|
         E|-0-------------------------------| - 2 раза

Is it you knocking at my door
Or may be just a ghostly wind?
How I wish that you were here,
Sitting by my side
And you'll bring me back to life again tonight

Припев.

Проигрыш:

|C  Asus2|H7/F#  Asus2| - 2 раза |C  C|Dadd11  Dadd11|

Припев.

Окончание:

Emadd9           Cmaj7   Dadd11      
E|---------------------------------|
H|---------0-----------------------|
G|-------0---0---0-----0-------0---|
D|-----4-------4-----2---2---4---4-|
A|---2-------------3-------5-------|
         E|-0-------------------------------| - 2 раза

                    Em
I'm waiting for you
 
Последние комментарии

"Сергей Дроздов - легендарный вокалист "Синей птицы" , а это что за круглый однофамилец и тезка???"
 

"Абсолютно!"
 

"Прекрасно!"
 

"50 лет эту песню слушаю и пою, 50 лет восхищаюсь"
 

"🔥Привет всё хорошо мне всё понравилось,нравится я в восторге и радуюсь наслаждаясь такой прекрасной правильной умной даже нравственной песне. Спасибо! Антон из Челябинска пока 🖐"
Вход на сайт