Accordium Delectus Подборка аккордов
 
Главная > Г > Город 312 > Останусь

Город 312: Останусь



Вступление

E|--------------------------|

H|--------------------------|

G|------------------5-------|

D|-------5--------4----4----|

A|-3--6-----3--5----------5-|

E|--------------------------|

Gm       D#maj7       Cm         Cm6      D7      

|------------------3------------------------------2-|

|-------3--------3------------4----------4------1---|

|-----3--------3------------5----------5------2-----|

|---5---------------------5----------5------0-------|

|------------6----------3---------------------------|

|-3--------------------------------5----------------|

Gm       D#maj7       Cm         Cm6      D7      

|-------3----------3------------------------------2-|

|-----3----------3------------4----------4------1---|

|---3----------3------------5----------5------2-----|

|-------------------------5----------5------0-------|

|------------6----------3---------------------------|

|-3--------------------------------5----------------|


Gm                                            D#maj7                
В конце тоннеля яркий свет слепой звезды,
Cm                                         Cm6         D7     
Подошвы на сухой листве оставят следы
Gm                                           D#maj7                
Ещё под кожей бьётся пульс, и надо жить...
Cm                                               Cm6              D7                    
Я, может, больше не вернусь, а, может, я с тобой останусь

Припев:

Cm7                F                B          
Останусь пеплом на губах,
               D#               Cm  
Останусь пламенем в глазах,
                          F                  B       F/A G/H
В твоих руках дыханьем ветра...

Cm7                  F             B/D       
Останусь снегом на щеке,
               D#            Cm
Останусь светом вдалеке,
          D7              Gm     
Я для тебя останусь светом...

Проигрыш:

Gm        D#         Cm         Cm6      D7      

|-------------------------------------------------2-|

|-------3----------4----------4----------4------1---|

|-----3----------3----------5----------5------2-----|

|---5----------5----------5----------5------0-------|

|------------6----------3---------------------------|

         |-3--------------------------------5----------------| - 2 раза


В конце тоннеля яркий свет, и я иду,
Иду по выжженной траве, по тонкому льду
Не плачь, я боли не боюсь – ее там нет, 
Я, может, больше не вернусь, а может, я с тобой останусь

Припев.

Проигрыш:

Gm  Gm-Gm7-D#  D#-D#/D-Cm  Cm-Cm7-Cm6  D7 - 2 раза

Припев:

Останусь пеплом на губах,
Останусь пламенем в глазах,
В твоих руках дыханьем ветра...

Останусь снегом на щеке,
Останусь светом вдалеке,
            D7           D#maj7 Dm7  Cm7   Gm   
Я для тебя останусь свето-о-о-о-о-о-о-о-ом...

Бой на гитаре (примерный вариант):

 


 
Последние комментарии

"Спасибо! отличная песня."
 

"Интересно кто так бездарно подбирает?! В оригинале слабо что ли?"
 

"Простая и в тоже время прекрасная,душевная песня.Спасибо!"
 

"Дзякуй"
 

"Показать окорды"
Статистика

Онлайн всего: 41
Гостей: 41
Пользователей: 0
Вход на сайт