Accordium Delectus Подборка аккордов
 
Главная > G > Green Crow > Белтейн

Green Crow: Белтейн



Вступление:

  Dsus2      Dmadd9        Gm6        Asus4          
E|-------0-----------0-----------0------------12---|
H|-----3---3-------3-----------8---8-------10------|
G|---2-------2---2-----------7-------7---9---------|
D|-0-----------3-------3>>>8-----------------------|
A|-------------------------------------0-----------|
         E|-------------------------------------------------| - 4 раза

Первые два куплета:

  Dsus2      Dmadd9       Cadd9  G6    Gm6            
E|-------0-----------0-----------------------------|
H|-----3---3-------3-----------3-----3-----3-------|
G|---2-----------2-----------0-----0-----0---------|
D|-0---------2-3-------2-0-------------------------|
A|-------------------------3-----2-----1-----0-1-3-|
         E|-------------------------------------------------| - 2 раза
   Gm6        Cadd9       Dsus2      Dmadd9 Cadd9    
E|-------0-----------------------0-----------------|
H|-----3---3-------3-----------3---3-------3-----3-|
G|---0-------0---0-----0-----2-------2---2-----0---|
D|-----------------------2-0-----------3-----------|
A|-1-----------3-----3-----------------------3-----|
E|-------------------------------------------------|
   Gm6        A7sus4      Dsus2       Dmadd9 Cadd9     
E|-------0-----------0-----------0-----------------|
H|-----3---3-------3---3-------3---3-------3-----3-|
G|---0-------0---0-------0---2-------2---2-----0---|
D|-------------------------0-----------3-----------|
A|-1-----------0-----------------------------3-----|
E|-------------------------------------------------|


               Dsus2           Dmadd9                   Cadd9 G6 Gm6
Слышишь – это песня весенних ручьёв
               Dsus2           Dmadd9                    Cadd9 G6 Gm6
Слышишь – это радость ожившей воды
                            Gm6                 Cadd9                       Dsus2   Dmadd9 Cadd9
Слышишь – это всполохи древних костров
                            Gm6           A7sus4                          Dsus2   Dmadd9 Cadd9
Слышишь – это отблеск упавшей звезды

Слышишь – время верить несбывшимся снам
Слышишь – оживают спящие тени
Слышишь – в Инис Эйрин приходит весна,
                Gm6                    Gm            Am       Dm      
А, значит, скоро вспыхнет безумный костёр Белтейна!

---------------------------------------------------------------------------------

Проигрыш:

|Dm  C|B  A7sus4 A| - 4 раза |A7sus4 A|

                           Dm                          C                              Am  F
Помнишь, как в танце встречались руки, сжимались сердца,
                B                                  C                     Dm        C
И как вкус жарких губ был дурманящей ягодой сочной,
              Dm                                C                         Am  F
И как время сплеталось в кольцо, и не видно конца,
            B                       Gm           Am         Dm    
И костры трепетали на крыльях смеющейся ночи

Проигрыш:

|Dm  C|B  A7sus4 A| - 4 раза |A7sus4 A|

Помнишь, дразнила улыбкой небесной колдунья-луна,
И как песня летела за ветром ликующим следом,
И как в кровь опьяняющим зельем врывалась весна,
И как искры летели в бездонное, синее небо

Проигрыш:

|Dm  C|B  A7sus4 A| - 4 раза |A7sus4 A  A|

  Dsus2      Dmadd9       Cadd9  G6    Gm6           
E|-------0-----------0-----------------------------|
H|-----3---3-------3-----------3-----3-----3-------|
G|---2-----------2-----------0-----0-----0---------|
D|-0---------2-3-------2-0-------------------------|
A|-------------------------3-----2-----1-----0-1-3-|
         E|-------------------------------------------------| - 2 раза
   Gm6        Cadd9       Dsus2      Dmadd9 Cadd9    
E|-------0-----------------------0-----------------|
H|-----3---3-------3-----------3---3-------3-----3-|
G|---0-------0---0-----0-----2-------2---2-----0---|
D|-----------------------2-0-----------3-----------|
A|-1-----------3-----3-----------------------3-----|
E|-------------------------------------------------|
   Gm6        A7sus4      Dsus2       Dmadd9 Cadd9    
E|-------0-----------0-----------0-----------------|
H|-----3---3-------3---3-------3---3-------3-----3-|
G|---0-------0---0-------0---2-------2---2-----0---|
D|-------------------------0-----------3-----------|
A|-1-----------0-----------------------------3-----|
E|-------------------------------------------------|

---------------------------------------------------------------------------------

Как первые два куплета:

Слышишь – это шорохи в кронах дубрав
Слышишь – это музыка духов лесных
Слышишь – зовущее пение трав
Слышишь – оживают чудесные сны

Слышишь – это песня в глубинах холма
Слышишь – бесшумные, тонкие тени
Слышишь – в Инис Эйрин приходит весна,
А, значит, скоро вспыхнет безумный костёр Белтейна

Окончание:

|Dm  C|B  A7sus4 A| - 4 раза |A7sus4 A  A|

  Dsus2      Dmadd9        Gm6        Asus4        Dsus2
E|-------0-----------0-----------0------------12------|
H|-----3---3-------3-----------8---8-------10-------3-|
G|---2-------2---2-----------7-------7---9----------2-|
D|-0-----------3-------3>>>8------------------------0-|
A|-------------------------------------0------------0-|
E|----------------------------------------------------|

Бой на гитаре (примерный вариант):

 


 
Последние комментарии

"Показать окорды"
 

"Удивительная, нежная песня как раз для Кати..."
 

"Володья Путен правит на Руси. Всё хорошо при нём кого ты не спроси - Олимпиады проводил, В сакральные места ходил и террористов он в сортире замочил. Но вот когда его немножечко того Тогда узнаем мы всю правду про него - Что из бюджета воровал И с Украиной воевал, И экономике при нём пришёл обвал..."
 

"Классно!!! Несколько раз подряд слушала, нравится песня и исполнение. Спасибо."
 

"Жаль,раньше не слышала эту песню,теперь буду петь про 60 лет.."
Статистика

Онлайн всего: 124
Гостей: 124
Пользователей: 0
Вход на сайт