Accordium Delectus Подборка аккордов
 
Главная > Г > Гладков Григорий > Два голоса

Григорий Гладков: Два голоса



Вступление: 

E|-3-----2-----3-----5-----5-----3-----3-------|
H|---0-----0-----0-----0-----4-----0-----4-----|
G|-----0-----0-----0-----5-----5-----0-----2---|
D|-2-----1-----2-----4-----4-----2-----------4-|
A|-------------------------------------2-------|
E|---------------------------------------------|

              Em    Gmaj7+5        Em         Gmaj7+5
Ты - дорожные знаки подносящий к плечу,
      Em      Gmaj7+5             E           Am
Я сегодня во мраке как твой ангел лечу
         Am6                       Cdim7     Em(2)
К моему изголовью подступают кусты,
       Am                               Cdim7              Em   
Помоги мне! С любовью не справляюсь, как ты...

Проигрыш=Вступление

-----------------------------------------------------------------------

Не проси облегчения от любви, не проси,
Согласись на мучение и губу прикуси
                  Am6                              Em(2)      Em/G 
Бодрствуй с полночью вместе, не мечтай разлюбить,
       C                          Cdim7       Em  
Я тебе на разъезде посвечу, так и быть

Проигрыш=Вступление

Ты - фонарь подносящий, как огонь к сургучу,
Я над речкой и чащей, как твой ангел, лечу
Синий свет худосочный, отражённый в окне,
Вроде жилки височной, не погасшей во мне

Проигрыш=Вступление

Не проси облегчения от любви, его нет,
Поздней ночью - свечение, днём - сияние и свет
Что весной развлечение, тяжкий труд к декабрю
Не проси облегчения от любви, говорю

Проигрыш=Вступление

Ты - дорожные знаки подносящий к плечу...
Не проси облегчения от любви, не проси...
Ты - фонарь подносящий, как огонь к сургучу...
Не проси облегчения от любви, не проси...

Окончание:

E|-3-----2-----3-----5-----5-----3-----3--2--3----0-|
H|---0-----0-----0-----0-----4-----0---4----------0-|
G|-----0-----0-----0-----5-----5-----0-2----------0-|
D|-2-----1-----2-----4-----4-----2-----4----------2-|
A|-------------------------------------2----------2-|
E|------------------------------------------------0-|
 
Поделись с друзьями:
 
 
Последние комментарии

"Здорово. По-моему. лучшее исполнение"
 

"Клаааас!"
 

"Низкий поклон АНГЕЛАМ ПРИСЯГИ!!!"
 

"Классная песня , с великим смыслом СПАСИБО""
 

"класс"
Статистика

Онлайн всего: 98
Гостей: 97
Пользователей: 1
baburin83628
Вход на сайт