Accordium Delectus Подборка аккордов Главная Отзывы Заявка на песню Аккорды Табы Новости Видео Статьи FAQ О сайте
А   Б   В   Г   Д   Е   Ё   Ж   З   И   Й   К   Л   М   Н   О   П   Р   С   Т   У   Ф   Х   Ц   Ч   Ш   Щ   Э   Ю   Я
 
A   B   C   D   E   F   G   H   I   J   K   L   M   N   O   P   Q   R   S   T   U   V   W   Y   Z                       0...9
"
Разделы сайта
                   
Настройка гитары
1-я струна E  

2-я струна H  

3-я струна G  

4-я струна D  

5-я струна A  

6-я струна E  
Главная > Л > Лепс Григорий > Спокойной ночи, господа

Григорий Лепс: Спокойной ночи, господа



В оригинале на два с половиной и на три тона выше (Gm и G#m)

Вступление:

  Dm              Dm/F            Gm          Gm7>Gm6    C#dim      
E|---------1---------------1---------------3---------------------0-|
H|-----3---------------3-----3---3-----3---------------3-------2---|
G|---2---2---2---2---2---2-----2-----3---3---3---3---3---3---0-----|
D|-0---------------------------------------------------------------|
A|---------------------------------------------------------4-------|
         E|-------------0---1---------------3-----------1---0---------------| - 2 раза

                         Gm          C#dim              Dm     Dm/F
Спокойной ночи, господа, спокойной ночи,
                            D/F#                 D            Gm     Gm7
Ваш день прошёл, а ночь колдует и пророчит
               Gm6            A7                  B          B6
Ночные сказки, отголоски дней минувших...
                           D#                D#/G                  A7        A7+5
Спокойной ночи, добрых снов для всех уснувших

Спокойной ночи, господа, гасите свечи,
Окно раскройте, за окном прекрасный вечер,
И если некому вас обнимать за плечи,
                    D#             D#/G                A7sus4  A7
Спокойной ночи, может, завтра будут встречи...

Припев:

                                  Dm           Dm/F                 Gm      Gmadd9>Gm/B
И будут ангелы летать над вашим домом,
                     C                 C/E             F       D7
Луна рассыплет жемчуга, и за порогом
                    Cm           D7                Gm    Gm7
Спокойна будет и тиха ночь-недотрога...
                     Gm6              A7                 B        Gm6
Да будет мир вам и покой, усните с Богом!
               D#               A7    
Да будет мир вам и покой...

Проигрыш:

  Dm              Dm/F            Gm          Gm7>Gm6    C#dim    A7  
E|---------1---------------1---------------3---------------------0-5-|
H|-----3---------------3-----3---3-----3---------------3-------2---5-|
G|---2---2---2---2---2---2-----2-----3---3---3---3---3---3---0-----6-|
D|-0---------------------------------------------------------------5-|
A|---------------------------------------------------------4-------0-|
E|-------------0---1---------------3-----------1---0-----------------|

Спокойной ночи, господа, прочь унижения!
Во сне приходят чудеса или видения
Пусть ваша совесть не чиста, пусть вы не прежни,
                                     D#                 D#/G                 A7        A7sus4 A7
Но день прошёл, и лишь сейчас вы так безгрешны

Припев:

И будут ангелы летать над вашим домом,
Луна рассыплет жемчуга, и за порогом
Спокойна будет и тиха ночь-недотрога...
Да будет мир вам и покой, усните с Богом!
               D#               A7                            
Да будет мир вам и покой, усните с Богом...

Проигрыш:

  Gm             Gm/B            Cm              Cm/D#             
E|---------3---------------3---------------3---------------3-------|
H|-----3-----3---------3-----3---3-----4-----4---------1-----1---1-|
G|---3---3-------3---3---3-----3-----5---5-------0---0---0-----0---|
D|---------------------------------------------0---1---------------|
A|-------------0---1---------------3-------------------------------|
E|-3---------------------------------------------------------------|
   F              F/A              B               G                
E|---------1---------------1---------------------------------------|
H|-----1-----1---------1-----1---1---------3---------------3-------|
G|---2---2-----------2---2-----2-------3-----3---------4-----4---4-|
D|-----------------------------------3---3-------0---5---5-----5---|
A|-----------------0---------------1-------------------------------|
E|-1-----------1-3-----------------------------4---3---------------|
  Fm               G              Cm              Cm7               
E|-----------------------------------------------------------------|
H|---------1---------------3---------------4---------------4-------|
G|-----1-----1---1-----4-----4---4-----5-----5---5-----5-----5---5-|
D|---3---3-----3-----5---5-----5-----5---5-----5-----5---5-----5---|
A|---------------------------------3-------------------------------|
E|-1---------------3-------------------------------6---------------|
  Cm6              D7             Gm             Gm/B               
E|-----------------------------------------3---------------3-------|
H|---------4---------------3-----------3-----3---3-----3-----3---3-|
G|-----5-----5---5-----5-----5---5---3---3-----3-----3---3-----3---|
D|---5---5-----5-----4---4-----4-----------------------------------|
A|-----------------5-------------------------------1---------------|
E|-5-------------------------------3-------------------------------|
  Dm              Dm/F     A7  
E|---------1-------------1-0-|
H|-----3-----3---3-----3---2-|
G|---2---2-----2-----2-----0-|
D|-0-----------------------2-|
A|-------------------------0-|
E|-----------------1---------|

Припев:

И будут ангелы летать над вашим домом,
Луна рассыплет жемчуга, и за порогом
Спокойна будет и тиха ночь-недотрога...
Да будет мир вам и покой, усните с Богом!
               D#               A7               Dm       
Да будет мир вам и покой, усните с Богом...

Окончание:

  Dm              Dm/F            Gm          Gm7>Gm6      A7          Dm  
E|---------1---------------1---------------3---------------------0------1-|
H|-----3---------------3-----3---3-----3---------------3-------2--------3-|
G|---2---2---2---2---2---2-----2-----3---3---3---3---3---3---0----------2-|
D|-0--------------------------------------------------------------------0-|
A|---------------------------------------------------------0--------------|
E|-------------0---1---------------3-----------1---0----------------------|
 
Поделись с друзьями:
 
 
Новые добавления
Статистика

Онлайн всего: 74
Гостей: 74
Пользователей: 0

Яндекс.Метрика

Вход на сайт