Accordium Delectus Подборка аккордов
 

Группа Лиц: Ворон



Вступление:

E|---------------------------------------------|

H|----------------------------------------0----|

G|----------0----------0-------0--------2----2-|

D|------------2----0>2-------2---2----0--------|

A|--------2------0---------3--------2----------|

         E|-0-3-0---------------------------------------| - 2 раза


Em            Am7  Cmaj7            Hm7        Em        
Чёрный ворон        сверху смотрит на нас,
           Am7   Cmaj7        Hm7        Em
Чёрной птицей        в облаках я кружу
             Am7  Cmaj7        Hm7      Em 
Полный "Стоп!",       давим по тормозам,
               Am7 Cmaj7        Hm7    Em
Выстрел в небо,       снова мимо ещё

Город страсти и больших перспектив,
Сладких женщин, одиноких сердец
Снова: "Стоп!" Пропусти лимузин,
      Am7       Cmaj7          Hm7        
Он один здесь,       чёрный ворон и...

Припев.

Am7  Hm7  Em   Cmaj7           
Ни-и-и-и души... Где же люди?
Am7 Hm7   Em Cmaj7         
Мир        завис  на распутье
 Am7  Hm7   Em  Cmaj7          
Где-е-е-е любовь? Он повсюду
Am7  Hm7
И-и-щет


Одинокий и бессмысленный взгляд
Он бросает, а вокруг ни души
Снова: "Стоп!" Оглянитесь назад,
Он один здесь, в окружении машин

Серый город навсегда разлучил,
В прошлой жизни он любовь потерял
Он один, в окружении машин...
Полный газ, наплевать, что устал!

Припев.

Окончание:

E|---------------------------------------------|

H|----------------------------------------0----|

G|----------0----------0-------0--------2----2-|

D|------------2----0>2-------2---2----0--------|

A|--------2------0---------3--------2----------|

   E|-0-3-0---------------------------------------|...

Примерный вариант боя:

 


 
Последние комментарии

"Нормально. Мы ее в армии лабали ДМБ-82"
 

"Класс!"
 

"Классная песня"
 

"Нравится,хотя очень грустно,но всё нужно пережить и не тужить!"
 

"Хуйня параша"
Статистика

Онлайн всего: 24
Гостей: 24
Пользователей: 0
Вход на сайт