Accordium Delectus Подборка аккордов
 
"
Главная > Г > Гуляй-поле > Со свиданьицем

Гуляй-поле: Со свиданьицем


В оригинале на полтора и на пол-тона ниже (C#m и D#m)


Вступление:


   Em        Em/D       Cmaj7         H7   

E|-3------2-0-2--------------------------|

H|--------------------5-3-5--3-----------|

G|---4-----------4----------------4-2-4--|

D|---------------------------------------|

A|---------------------------------------|

E|---------------------------------------|

 

   Em        Em/D       Cmaj7      H7      

E|-3------2-0-2----------------2-3-2-----|

H|--------------------5-3-5--------------|

G|---4-----------4-----------------------|

D|---------------------------------------|

A|---------------------------------------|

E|---------------------------------------|

 

  Em    Em/D     Cmaj7      H7            

E|-7--5---7----5-------------------------|

H|------8--------8-7-5--7-8-7------------|

G|---------------------------------------|

D|---------------------------------------|

A|---------------------------------------|

E|---------------------------------------|

 

     Em        Em/D       Cmaj7      H7   Em   

E|-3------2-0-2----------------2-3-2-----|

H|--------------------5-3-5--------------|

G|---4-----------4-----------------------|

D|---------------------------------------|

A|---------------------------------------|

E|---------------------------------------|

       Em    H7    Em  
Ты укрой меня, укрой
      Em   D  G
Простынёю белою
     Am          Em 
Вот я и пришёл домой,
        H7      Em 
Вишня моя спелая

Проигрыш: Am  Em  H7  Em

Выставляй вино на стол,
Что рыдать, да маяться
Вот я и домой пришёл,
Со свиданьицем...

Проигрыш: Am  Em  H7  Em

Ох и сладко спится мне!
Пусть метель куражится,
А что воет пёс по мне –
Тебе только кажется

Проигрыш: Am  Em  H7  Em

Выставляй вино на стол,
Что рыдать, да маяться
Вот я и домой пришёл,
Со свиданьицем...
Вот я и домой пришёл,
Со свиданьицем...


Позови соседей в дом,
Сядем, пообедаем
И поделимся потом
Радостями-бедами
И поделимся потом
Радостями-бедами


Выставляй вино на стол,
Что рыдать, да маяться
Вот я и домой пришёл,
Со свиданьицем...
Вот я и домой пришёл,
Со свиданьицем...

Проигрыш: Em  D  C  H7 - 4 раза Em 

Не был я крещёным в срок,
Господи, помилуй!
Пусть зайдёт на огонёк
Батюшка Василий
Пусть зайдёт на огонёк
Батюшка Василий


Ты укрой меня, укрой
Покрывалом с кружевом
Не кричи ты надо мной
   Шёпотом простуженным...
Не кричи ты надо мной
   Шёпотом простуженным...


Выставляй вино на стол,
Что рыдать, да маяться
Вот я и домой пришёл,
Со свиданьицем...
Вот я и домой пришёл,
Со свиданьицем...

     Am          Em 
Вот я и домой пришёл,
Со свиданьицем...

Окончание:

Am  H7  Em  C  Am  H7   Em  H7/F#  Em/G  E - 3 раза Am7  D7   Gmaj7 C   Am  H7  Em

 
Поделись с друзьями:
 
 
Последние комментарии

"Амэнь!"
 

"В Иркутске опять дождь и монотонный и ленивый)))"
 

"Мне нравится"
 

"супер.....браво,.молодцы"
 

"интересный вариант"
Настройка гитары
1-ая струна E (ми)  

2-ая струна H (си)  

3-я струна G (соль) 

4-ая струна D (ре) 

5-ая струна A (ля) 

6-ая струна E (ми) 
Статистика

Онлайн всего: 45
Гостей: 44
Пользователей: 1
Justas
Вход на сайт