Accordium Delectus Подборка аккордов
 
Главная > К > Корнелюк Игорь > Город, которого нет

Игорь Корнелюк: Город, которого нет


Можно сыграть перебором "восьмёрка": бас, 3-я, 2-я, 3-я, 1-я, 3-я, 2-я, 3-я

Вступление: 

|Dm  Dm7|B7-5  A7|

Dm              Dm7          B7-5      A7        
E|-----10-12-13-15---13>12>10------------------|
H|--10---------------------------9-8-6-8>10-10-|
G|---------------------------------------------|
D|---------------------------------------------|
A|---------------------------------------------|
E|---------------------------------------------|

Dm            Dm/F               Gm7
Ночь и тишина, данная на век,
       C                                          Fmaj7 B
Дождь, а, может быть, падает снег
          Gm6                                          A7
Всё равно, бесконечной надеждой согрет,
                        Gm6                                 A7  G7 G6+11
Я вдали вижу город, которого нет

Где легко найти страннику приют,
Где, наверняка, помнят и ждут,
День за днём, то теряя, то путая след,
Я иду в этот город, которого нет

Припев: 

Dm         Dm/F         Gm7
Там для меня горит очаг,
                     C              A+5 A7
Как вечный знак забытых истин
  Dm      Dm/F                 Gm7
Мне до него - последний шаг,
            C                A+5 A7
И этот шаг длиннее жизни

Проигрыш:

Dm                                                            
E|-10-12-13-12-10--------------------------------------------------|
H|------------------10--8------------------------------------------|
G|-------------------------10--9--10--7-9-10-9-7-------------------|
D|------------------------------------------------7--5-------------|
A|------------------------------------------------------8--7--8--5-|
E|-----------------------------------------------------------------|

Кто ответит мне, что судьбой дано?
Пусть об этом знать не суждено
Может быть, за порогом растраченных лет,
Я найду этот город, которого нет

Припев.

Проигрыш:

    Dm                         D#6+11/D
E|-10-12-13-12-10-------------------|
H|-------------------13--11--10--13-|
G|----------------------------------|
D|----------------------------------|
A|----------------------------------|
E|----------------------------------|

                         B-5/D
E|----------17----------------------|
H|-13-15-16-------16--15--13--11----|
G|----------------------------------|
D|----------------------------------|
A|----------------------------------|
E|----------------------------------|

   D#                           Edim 
E|----------15----17-14-15-17-18-10-|
H|----------------------------------|
G|-12-14-15-------------------------|
D|----------------------------------|
A|----------------------------------|
E|----------------------------------|

         D#               Edim      A    G7 G6+11
E|-------------------15-------10----|
H|-------------13-15-------15-------|
G|-------12-14----------------------|
D|-12-13----------------------------|
A|----------------------------------|
E|----------------------------------|

Припев.

Окончание:

Dm                                                            
E|-10-12-13-12-10--------------------------------------------------|
H|------------------10--8------------------------------------------|
G|-------------------------10--9--10--7-9-10-9-7-------------------|
D|------------------------------------------------7--5-------------|
A|------------------------------------------------------8--7--8--5-|
E|-----------------------------------------------------------------|

 
Последние комментарии

"а где найти ноты к этой песне"
 

"Исполнение просто супер,нет слов,с душой тревогой в душе!!!Можно слушать и слушать???"
 

"Спасибо. Класс!"
 

"класс"
 

"Круть😃😃😃"
Статистика

Онлайн всего: 115
Гостей: 115
Пользователей: 0
Вход на сайт