Accordium Delectus Подборка аккордов
 
Главная > М > Малыгин Игорь > Плакала

Игорь Малыгин: Плакала

(на стихи Николая Гончарова)
 


В оригинале на пол-тона выше (Bm).

Можно проиграть этими же аккордами, поставив каподастр на 1-ом ладу

Вступление:

E|---------0-------------------0------------0---------0-------------|
H|-----1-----1---1---3-----------1------1-----1---1-3---3---------0-|
G|-------2-----2-------2-----1----------2-------2---------2-----1---|
D|---2-------------------3------------2---2-------------------0-----|
A|-0-------3-------2----------------0-------3-------2---------------|
E|-------------------------0--------------------------------0-------|

E|---------0--------------------------------0---------0-------------|
H|-----1-----1-----------3-------0------1-----1-----3---3-------1---|
G|-------2-----2-------2-------1--------2-------2---------2-----1---|
D|---2-----------2---3-------2--------2---2-------2-------------2---|
A|-0-------3-------2----------------0-------3-------2---------------|
E|-------------------------0--------------------------------0-------|

  Am  Am/C   Dm    E7
Пла-а-кала, плакала,
Am            Am/C Dm   G7      
Слёзы свои прятала
C                     G7     C      
Провожала му-у-жа,
Dm6add9               E+5                        
Не хотела - нужно

   Am    Am/C   Dm       E7
В нём души не ча-я-а-ла,
Am        Am/C    Dm  G7    C                  
Удержать отча-а-я-а-ла-а-ась,
Gm                        A7        Dm      
Но до самой две-е-е-е-ри
Dm/E>Dm/F                   E7                                
Не хотела ве-е-ерить

       Am            Em       Fmaj7   
Взял её за пле-е-е-ечи:
Gm                              A7   Dm        
"Ну, до скорой встре-е-чи",
Dm/E>Dm/F                    E7      Fmaj7                   
И уже в маши-и-и-ине:
Dm     Dm/E>Dm/F       E7            
"Не го-----рюй, пиши мне

Am                   Em      Fmaj7   
Отвоюем, сно-о-о-ова
Gm                        A7   Dm        
Будем любо вме-е-сте"
Dm/E>Dm/F                           E7      Fmaj7                 
Не сдержал он сло-о-о-ово,
Dm6add9                          E7    Am                
Похоронен в Бре-е-сте

 Am     Am/C    Dm       E7
Пла-а-а-кала, плака-ала,
Am          Am/C Dm  G7    C  
Горе своё пря-а-атала-а-а
Gm                       A7        Dm         
Да ждала, люби-и-и-ила -
Dm/E>Dm/F                         E7   Am                        
Вот и всё, что бы-ы-ло...
 


 
Последние комментарии

"... а вот в исполнениииавтора песни пол века назад... https://zaycev.net/artist/115135?spa=true&trackId..."
 

"Шедевр!!!"
 

"Нето фуфло паешь Врешь сука."
 

"С третьего аккорда начинается неправильные аккорды вы сами играете или переписываете у других?"
 

"Кто подскажет где скачать минусовку? Буду очень благодарен. Песня отличная."
Статистика

Онлайн всего: 66
Гостей: 66
Пользователей: 0
Вход на сайт