Accordium Delectus Подборка аккордов
 
Главная > Н > Николаев Игорь > Раскаты грома

Игорь Николаев: Раскаты грома



Вступление:

 Cadd9           G6            Am7           Em/G             

E|--------0-------------0--------------0-------------0------|

H|------3----3--------3----3---------1----1--------0----0---|

G|----0--------0----0--------0-----0--------0----0--------0-|

D|----------------------------------------------------------|

A|-3--------------2-------------0---------------------------|

E|---------------------------------------------3------------|

Am/F#           H7              Em                            

E|--------0-------------2------|:--------0-------------0------:|

H|------1----1--------0----0---|:------0----0--------0----0---:|

G|----2--------2----2--------2-|:----0--------0----0--------0-:|

D|-----------------------------|:----------------2------------:|

A|----------------2------------|:-----------------------------:|

         E|-2---------------------------|:-0---------------------------:| - 2 раза

Соло (2 раза)

E|-5--3--5>7-5-3-| - 1 струна

H|-7--5--7>8-7-5-| - 2 струна


Em          Em/G          Am  Am/C   
Как любили мы когда-а-то
H7            H7/D#       Em  Em/H   
Слушать гулкие раска-а-ты
Em              Em7                 C    C/E      
Вспышки молний нас слепи-и-ли,
Am            H7         Em        
С нами небо говорило

Am                                 Em/G        
Ты была в промокшем платье,
         Am/F#       H7           Em Ddim7-Hdim7
О, как хотел тебя обнять я!
Am(5)                             C               
Ты и я в подъезде дома,
H7           H7/D#              Em        
А в небесах – раскаты грома

Припев:

Am7 D   G    
О,  о-у-о,
Am        H7       Em   
Как это было давно...
Am                             C         
Но до боли мне знакомы
H7                              Em        
В небесах раскаты грома

Проигрыш:

 Em  

E|:--------0-------------0------:|

H|:------0----0--------0----0---:|

G|:----0--------0----0--------0-:|

D|:----------------2------------:|

A|:-----------------------------:|

         E|:-0---------------------------:| - 2 раза

Соло (2 раза)

E|-5--3--5>7-5-3-| - 1 струна

H|-7--5--7>8-7-5-| - 2 струна


Наши громы отгремели,
Мы любовью отболели
Огорчаемся едва ли,
Что друг друга потеряли

Но когда такой нежданный
Гром ударит ночью пьяной,
Сердце вспомнит свою юность,
Что ушла и не вернулась...

Припев:

О, о-у-о,
Как это было давно...
Сердце вспомнит свою юность
Что ушла и не вернулась

О, о-у-о,
Как это было давно...
Но до боли мне знакомы
В небесах раскаты грома

Бой на гитаре (примерный вариант):

 


 
Последние комментарии

"Для гармонии нет нот???"
 

"Теперь и в моем репертуаре !"
 

"Да очень мало осталось певцов и поэтов патриотов воспевающих о жизни на селе, молодец В Семин!!"
 

"До слёз...буквально, в прямом смысле..."
 

"Спасибо"
Статистика

Онлайн всего: 27
Гостей: 27
Пользователей: 0
Вход на сайт