Accordium Delectus Подборка аккордов
 

Игорь Саруханов: Розочка




Вступление (примерный вариант):

E|---8--7-5-3-1-0-----------------|

H|---10-8-6-5-3-1-3-------0-------|

G|----------------4-2---2-------1-|

D|---10-9-7-5-3-2-0---0-------0---|

A|-0------------------------------|

         E|------------------1-------0-----| - 2 раза


Am      Dm7             G7        Cadd9     
На небе солнышко, глазки прищурены,
 F6      Dm7       Hm7-5      E7
Ты засыпаешь под песню мою
Am       Dm7              G7      Cadd9       
Не вырастай, прошу! Щёчки папулины...
F6        Dm7     Hm7-5 E7 Am
Я расскажу тебе сказку свою

Скоро и солнышко вновь спать уляжется,
Звёзды на небушке будешь считать
Папина песенка сказкой окажется,
F6    Hm7-5      E7      Am  
И тебе тоже пора засыпать

Припев:

 Am       Dm7         G7       Cadd9    
Спи, моя девочка, спи, моя сладкая,
       F6     Hm7-5     E7sus4      E7
Спи, моя доченька Розочка!
 Am       Dm7       G7    Cadd9     
Спи, моя милая, спи, моя нежная,
  F6         Hm7-5     E7   Am
Спи, долгожданная Розочка!

Проигрыш:

E|---8--7-5-3-1-0-----------------|

H|---10-8-6-5-3-1-3-------0-------|

G|----------------4-2---2-------1-|

D|---10-9-7-5-3-2-0---0-------0---|

A|-0------------------------------|

E|------------------1-------0-----|


Твой мир раскрашенный разными красками,
Ты удивляешься вся и всему
День будет сказочный, с детскими ласками,
Это на радость отцу твоему

Припев.

Проигрыш=Вступление

Ты всю ночь плакала, мама не выспалась,
И вы уснули под песню мою
Счастье такое мне бы не выпало,
Если б я маму не встретил твою

Припев - 2 раза.

Окончание (примерный вариант):

E|-------------------------------5-|

H|-----0-------0-------0-------5---|

G|---5---5---5---5---5---5---5-----|

D|-7-------6-------5-------4-------|

A|---------------------------------|

E|---------------------------------|


E|------------------0-------------------------------5-----|

H|-5---------0-1---1--1---------0--0--0-----------5-------|

G|---5-----2------2-----2---------2-1---1-2-----5---------|

D|-----4-3-------3--------2---0---------------7--------фл-|

A|------------------------------------------0-------------|

E|--------------------------0-----------------------------|

 
Последние комментарии

"Песня и исполнение - супер, берет за душу до слез. Играю и пою ее каждый день. Спасибо автору и исполнителю за столь душевную музыку"
 

"Кто автор музыки и слов???"
 

"Понравилась песня."
 

"Здорово. По-моему. лучшее исполнение"
 

"Клаааас!"
Статистика

Онлайн всего: 101
Гостей: 101
Пользователей: 0
Вход на сайт