Accordium Delectus Подборка аккордов
 
Главная > С > Слуцкий Игорь > За Победу!

Игорь Слуцкий: За Победу!



Смотреть в тональности Am


Вступление:

        G#         D#      Fm             Cm
E|-11-10-------------------------------------------------|
H|-------13-11-13----11-9-11-9-11-----9-8-9-------8----8-|
G|---------------------------------------------10---10---|
D|-------------------------------------------------------|
A|-------------------------------------------------------|
E|-------------------------------------------------------|

   Fm          Cm     Fm     G     Cm               G#    
E|------------------------------------------------6-8----|
H|-------------------------6------------------6-8--------|
G|-10-8-10----7-8-7-8----7---8----7-5-4-5-7-8------------|
D|-------------------------------------------------------|
A|-------------------------------------------------------|
E|-------------------------------------------------------|

D#    Fm           Cm       Fm         Cm   
E|-6-4-6-4-6---------------------------------------------|
H|--------------9-8-9----6-8-6-8----6-4-6----------------|
G|-------------------------------------------7-8-7-8-----|
D|-------------------------------------------------------|
A|-------------------------------------------------------|
E|-------------------------------------------------------|

   Fm     G    Cm  
E|--------------8-|
H|-----9--8--6----|
G|-10-------------|
D|----------------|
A|----------------|
E|----------------|

        Сm             G      Cm    
Наша жизнь - не белый лист, 
          G#         B       D# 
Кто танкист, а кто связист,
         G#                   C7                 F      
Кто пилот, а кто Морфлот - все сражались

          Fm           Dm7-5
Наши сверстники уже -
              Cm                     
Каждый в личном блиндаже,
        D7                                 G       
Ну а мы с весной в душе задержались


Хочешь - плачь, а хочешь - пой, 
Нам всё реже снится бой,
И всё медленнее строй ветеранов

Фронтовые сотню грамм 
Внуки с правнуками нам,
В майский вечер, разольют по стаканам

Припев:

        G#         D#              Fm                   Cm
За девятое число выпьем, всем смертям назло,
              D7                                 G    
Волчьей стаей пусть года идут по следу
       G#                    D#          Fm Cm
И за мир в не мирном мире, и за Т-34, 
Fm           G               Cm         
За "Катюшу", за Победу!

Проигрыш: G#  D#  Fm  Cm  Fm  Cm   Fm G Cm - 2 раза

Прижимает сердце груз 
За разорванный союз...
Где тут минус, где тут плюс в самом деле?

Молодые, как в кино, 
Перестроились давно,
            D7                              G     G#
А кому не всё-равно - не сумели

Переход на 1 полутон (на 1 лад) выше (C#m)

          C#m     G#      C#m 
Кто сражался, тот поймёт: 
            A    H      E   
Не за льготы и почёт,
         A           C#7         F#   
За Отчизну и народ били гада!

         F#m         D#m7-5
Славу точно заслужил 
           C#m                 
Тот, кто голову сложил,
     D#7                               G#   
И сегодня нам за них выпить надо!

Припев:

         A           E              F#m                 C#m
За девятое число выпьем, всем смертям назло,
             D#7                                G#  
Волчьей стаей пусть года идут по следу
        A                      E         F#m C#m
И за мир в не мирном мире, и за Т-34, 
F#m          G#             C#m         
За "Катюшу", за Победу!

Проигрыш: Hm  C#7  F#m  F#m  D#7  D#7  G#sus4 G#

Припев - 2 раза.

Окончание: A  E  F#m  C#m  F#m  C#m  F#m G# C#m - 2 раза

Примерный вариант боя:


 
Последние комментарии

"можно на 1 струне"
 

"Реклама одолела"
 

"сильная песня"
 

"👍"
 

"Сила"
Вход на сайт