Accordium Delectus Подборка аккордов
 
"

Игорь Воронцов: Конверт



Вступление:

  Em   Gmaj7+5    G/D   Gmaj7+5     
E|-0-----0-2-----2-3-----3-2-----2-|
H|-----0-------0-------0-------0---|
G|---0-------0-------0-------0-----|
D|-2-------1-------0-------1-------|
A|---------------------------------|
         E|---------------------------------| - 2 раза

                 Em          Gmaj7+5             G/D         C#dim
Почтовый ящик, невод мой бездонный!
               Am        H7sus4             H7             
Как небогат сегодняшний улов...
              Am7                    D7                  G     Cmaj7
Конверт, змеёй свернувшийся в ладони,
       Am6             H7                Em 
В глаза готовый жалить ядом слов

Припев - 2 раза:

          E                 E7  Ddim7   Hdim7  
"Прости, мы никогда не будем вместе!
        E                   E7                Am    
Люблю его! Будь счастлив, не зови..."
             D7sus4              D7                  G       Cmaj7
Надписанный конверт - дурные вести,
          Am6                 H7                Em
Груз "двести" не проснувшейся любви

Проигрыш:

|Em  Gmaj7+5|G/D  Gmaj7+5|Am  Am|H7  H7|

|Am  D7|G  Cmaj7|Am6  H7|Em  Em|

|Em  E7|Ddim7  Hdim7|E  E7|Am  Am|

|D7sus4  D7|G  Cmaj7|Am6  H7|Em  Em|

Нить долгих дней, и год клубком намотан
Пришедшей в гости длинною зимой
С той стороны двери конвертик кто-то
Положит осторожно в ящик мой

Припев - 2 раза:

"Пишу тебе, не спится до рассвета,
Грущу, скучаю, помню... Не зови!"
Надписанный конверт - частичка света
Ушедшей, но не умершей любви

Окончание:

  Em   Gmaj7+5    G/D   Gmaj7+5                 Em  
E|-0-----0-2-----2-3-----3-2-----2-|          E|-0-|
H|-----0-------0-------0-------0---|          H|-0-|
G|---0-------0-------0-------0-----|          G|-0-|
D|-2-------1-------0-------1-------|          D|-2-|
A|---------------------------------|          A|-2-|
E|---------------------------------| - 2 раза E|-0-|
 
Поделись с друзьями:
 
 
Последние комментарии

"Песня юности..."
 

"Очень круто!)) Вот тебе и актерское пение!!"
 

"Тогда другим - с крутых яиц бульон"
 
Борис Блохин «БИРТМАН: Иволга

"Ну и хрень."
 

"Замечательная песня."
Настройка гитары
1-ая струна E (ми)  

2-ая струна H (си)  

3-я струна G (соль) 

4-ая струна D (ре) 

5-ая струна A (ля) 

6-ая струна E (ми) 
Статистика

Онлайн всего: 73
Гостей: 73
Пользователей: 0
Вход на сайт